  0
SECTION
  2
HEADER
  9
$ACADVER
  1
AC1021
  9
$ACADMAINTVER
 70
    25
  9
$DWGCODEPAGE
  3
ANSI_1252
  9
$LASTSAVEDBY
  1
gracia
  9
$INSBASE
 10
0.0
 20
0.0
 30
0.0
  9
$EXTMIN
 10
1.000000000000000E+20
 20
1.000000000000000E+20
 30
1.000000000000000E+20
  9
$EXTMAX
 10
-1.000000000000000E+20
 20
-1.000000000000000E+20
 30
-1.000000000000000E+20
  9
$LIMMIN
 10
0.0
 20
0.0
  9
$LIMMAX
 10
12.0
 20
9.0
  9
$ORTHOMODE
 70
     0
  9
$REGENMODE
 70
     1
  9
$FILLMODE
 70
     1
  9
$QTEXTMODE
 70
     0
  9
$MIRRTEXT
 70
     1
  9
$LTSCALE
 40
1.0
  9
$ATTMODE
 70
     1
  9
$TEXTSIZE
 40
0.2
  9
$TRACEWID
 40
0.05
  9
$TEXTSTYLE
  7
Standard
  9
$CLAYER
  8
front
  9
$CELTYPE
  6
ByLayer
  9
$CECOLOR
 62
   256
  9
$CELTSCALE
 40
1.0
  9
$DISPSILH
 70
     0
  9
$DIMSCALE
 40
1.0
  9
$DIMASZ
 40
0.18
  9
$DIMEXO
 40
0.0625
  9
$DIMDLI
 40
0.38
  9
$DIMRND
 40
0.0
  9
$DIMDLE
 40
0.0
  9
$DIMEXE
 40
0.18
  9
$DIMTP
 40
0.0
  9
$DIMTM
 40
0.0
  9
$DIMTXT
 40
0.18
  9
$DIMCEN
 40
0.09
  9
$DIMTSZ
 40
0.0
  9
$DIMTOL
 70
     0
  9
$DIMLIM
 70
     0
  9
$DIMTIH
 70
     1
  9
$DIMTOH
 70
     1
  9
$DIMSE1
 70
     0
  9
$DIMSE2
 70
     0
  9
$DIMTAD
 70
     0
  9
$DIMZIN
 70
     0
  9
$DIMBLK
  1

  9
$DIMASO
 70
     1
  9
$DIMSHO
 70
     1
  9
$DIMPOST
  1

  9
$DIMAPOST
  1

  9
$DIMALT
 70
     0
  9
$DIMALTD
 70
     2
  9
$DIMALTF
 40
25.4
  9
$DIMLFAC
 40
1.0
  9
$DIMTOFL
 70
     0
  9
$DIMTVP
 40
0.0
  9
$DIMTIX
 70
     0
  9
$DIMSOXD
 70
     0
  9
$DIMSAH
 70
     0
  9
$DIMBLK1
  1

  9
$DIMBLK2
  1

  9
$DIMSTYLE
  2
STANDARD_ACAD
  9
$DIMCLRD
 70
     0
  9
$DIMCLRE
 70
     0
  9
$DIMCLRT
 70
     0
  9
$DIMTFAC
 40
1.0
  9
$DIMGAP
 40
0.09
  9
$DIMJUST
 70
     0
  9
$DIMSD1
 70
     0
  9
$DIMSD2
 70
     0
  9
$DIMTOLJ
 70
     1
  9
$DIMTZIN
 70
     0
  9
$DIMALTZ
 70
     0
  9
$DIMALTTZ
 70
     0
  9
$DIMUPT
 70
     0
  9
$DIMDEC
 70
     4
  9
$DIMTDEC
 70
     4
  9
$DIMALTU
 70
     2
  9
$DIMALTTD
 70
     2
  9
$DIMTXSTY
  7
Standard
  9
$DIMAUNIT
 70
     0
  9
$DIMADEC
 70
     0
  9
$DIMALTRND
 40
0.0
  9
$DIMAZIN
 70
     0
  9
$DIMDSEP
 70
    46
  9
$DIMATFIT
 70
     3
  9
$DIMFRAC
 70
     0
  9
$DIMLDRBLK
  1

  9
$DIMLUNIT
 70
     2
  9
$DIMLWD
 70
    -2
  9
$DIMLWE
 70
    -2
  9
$DIMTMOVE
 70
     2
  9
$DIMFXL
 40
1.0
  9
$DIMFXLON
 70
     0
  9
$DIMJOGANG
 40
0.7853981633974483
  9
$DIMTFILL
 70
     0
  9
$DIMTFILLCLR
 70
     0
  9
$DIMARCSYM
 70
     0
  9
$DIMLTYPE
  6

  9
$DIMLTEX1
  6

  9
$DIMLTEX2
  6

  9
$LUNITS
 70
     2
  9
$LUPREC
 70
     3
  9
$SKETCHINC
 40
0.1
  9
$FILLETRAD
 40
0.0
  9
$AUNITS
 70
     0
  9
$AUPREC
 70
     0
  9
$MENU
  1
.
  9
$ELEVATION
 40
0.0
  9
$PELEVATION
 40
0.0
  9
$THICKNESS
 40
0.0
  9
$LIMCHECK
 70
     0
  9
$CHAMFERA
 40
0.0
  9
$CHAMFERB
 40
0.0
  9
$CHAMFERC
 40
0.0
  9
$CHAMFERD
 40
0.0
  9
$SKPOLY
 70
     0
  9
$TDCREATE
 40
2459370.423353426
  9
$TDUCREATE
 40
2459370.340020093
  9
$TDUPDATE
 40
2459370.423367535
  9
$TDUUPDATE
 40
2459370.340034201
  9
$TDINDWG
 40
0.0000000116
  9
$TDUSRTIMER
 40
0.0000000116
  9
$USRTIMER
 70
     1
  9
$ANGBASE
 50
0.0
  9
$ANGDIR
 70
     0
  9
$PDMODE
 70
     0
  9
$PDSIZE
 40
0.0
  9
$PLINEWID
 40
0.0
  9
$SPLFRAME
 70
     0
  9
$SPLINETYPE
 70
     6
  9
$SPLINESEGS
 70
     8
  9
$HANDSEED
  5
27F
  9
$SURFTAB1
 70
     6
  9
$SURFTAB2
 70
     6
  9
$SURFTYPE
 70
     6
  9
$SURFU
 70
     6
  9
$SURFV
 70
     6
  9
$UCSBASE
  2

  9
$UCSNAME
  2

  9
$UCSORG
 10
0.0
 20
0.0
 30
0.0
  9
$UCSXDIR
 10
1.0
 20
0.0
 30
0.0
  9
$UCSYDIR
 10
0.0
 20
1.0
 30
0.0
  9
$UCSORTHOREF
  2

  9
$UCSORTHOVIEW
 70
     0
  9
$UCSORGTOP
 10
0.0
 20
0.0
 30
0.0
  9
$UCSORGBOTTOM
 10
0.0
 20
0.0
 30
0.0
  9
$UCSORGLEFT
 10
0.0
 20
0.0
 30
0.0
  9
$UCSORGRIGHT
 10
0.0
 20
0.0
 30
0.0
  9
$UCSORGFRONT
 10
0.0
 20
0.0
 30
0.0
  9
$UCSORGBACK
 10
0.0
 20
0.0
 30
0.0
  9
$PUCSBASE
  2

  9
$PUCSNAME
  2

  9
$PUCSORG
 10
0.0
 20
0.0
 30
0.0
  9
$PUCSXDIR
 10
1.0
 20
0.0
 30
0.0
  9
$PUCSYDIR
 10
0.0
 20
1.0
 30
0.0
  9
$PUCSORTHOREF
  2

  9
$PUCSORTHOVIEW
 70
     0
  9
$PUCSORGTOP
 10
0.0
 20
0.0
 30
0.0
  9
$PUCSORGBOTTOM
 10
0.0
 20
0.0
 30
0.0
  9
$PUCSORGLEFT
 10
0.0
 20
0.0
 30
0.0
  9
$PUCSORGRIGHT
 10
0.0
 20
0.0
 30
0.0
  9
$PUCSORGFRONT
 10
0.0
 20
0.0
 30
0.0
  9
$PUCSORGBACK
 10
0.0
 20
0.0
 30
0.0
  9
$USERI1
 70
     0
  9
$USERI2
 70
     0
  9
$USERI3
 70
     0
  9
$USERI4
 70
     0
  9
$USERI5
 70
     0
  9
$USERR1
 40
0.0
  9
$USERR2
 40
0.0
  9
$USERR3
 40
0.0
  9
$USERR4
 40
0.0
  9
$USERR5
 40
0.0
  9
$WORLDVIEW
 70
     1
  9
$SHADEDGE
 70
     3
  9
$SHADEDIF
 70
    70
  9
$TILEMODE
 70
     1
  9
$MAXACTVP
 70
    64
  9
$PINSBASE
 10
0.0
 20
0.0
 30
0.0
  9
$PLIMCHECK
 70
     0
  9
$PEXTMIN
 10
1.000000000000000E+20
 20
1.000000000000000E+20
 30
1.000000000000000E+20
  9
$PEXTMAX
 10
-1.000000000000000E+20
 20
-1.000000000000000E+20
 30
-1.000000000000000E+20
  9
$PLIMMIN
 10
0.0
 20
0.0
  9
$PLIMMAX
 10
12.0
 20
9.0
  9
$UNITMODE
 70
     0
  9
$VISRETAIN
 70
     1
  9
$PLINEGEN
 70
     0
  9
$PSLTSCALE
 70
     1
  9
$TREEDEPTH
 70
  3020
  9
$CMLSTYLE
  2
Standard
  9
$CMLJUST
 70
     0
  9
$CMLSCALE
 40
1.0
  9
$PROXYGRAPHICS
 70
     1
  9
$MEASUREMENT
 70
     1
  9
$CELWEIGHT
370
    -1
  9
$ENDCAPS
280
     0
  9
$JOINSTYLE
280
     0
  9
$LWDISPLAY
290
     0
  9
$INSUNITS
 70
     5
  9
$HYPERLINKBASE
  1

  9
$STYLESHEET
  1

  9
$XEDIT
290
     1
  9
$CEPSNTYPE
380
     0
  9
$PSTYLEMODE
290
     1
  9
$FINGERPRINTGUID
  2
{1639f301-736f-4553-aff6-fe29fc69a13c}
  9
$VERSIONGUID
  2
{FAEB1C32-E019-11D5-929B-00C0DF256EC4}
  9
$EXTNAMES
290
     1
  9
$PSVPSCALE
 40
0.0
  9
$OLESTARTUP
290
     0
  9
$SORTENTS
280
   127
  9
$INDEXCTL
280
     0
  9
$HIDETEXT
280
     1
  9
$XCLIPFRAME
290
     0
  9
$HALOGAP
280
     0
  9
$OBSCOLOR
 70
   257
  9
$OBSLTYPE
280
     0
  9
$INTERSECTIONDISPLAY
280
     0
  9
$INTERSECTIONCOLOR
 70
   257
  9
$DIMASSOC
280
     2
  9
$PROJECTNAME
  1

  9
$CAMERADISPLAY
290
     0
  9
$LENSLENGTH
 40
50.0
  9
$CAMERAHEIGHT
 40
0.0
  9
$STEPSPERSEC
 40
2.0
  9
$STEPSIZE
 40
6.0
  9
$3DDWFPREC
 40
2.0
  9
$PSOLWIDTH
 40
0.25
  9
$PSOLHEIGHT
 40
4.0
  9
$LOFTANG1
 40
1.570796326794897
  9
$LOFTANG2
 40
1.570796326794897
  9
$LOFTMAG1
 40
0.0
  9
$LOFTMAG2
 40
0.0
  9
$LOFTPARAM
 70
     7
  9
$LOFTNORMALS
280
     1
  9
$LATITUDE
 40
37.795
  9
$LONGITUDE
 40
-122.394
  9
$NORTHDIRECTION
 40
0.0
  9
$TIMEZONE
 70
 -8000
  9
$LIGHTGLYPHDISPLAY
280
     1
  9
$TILEMODELIGHTSYNCH
280
     1
  9
$CMATERIAL
347
44
  9
$SOLIDHIST
280
     0
  9
$SHOWHIST
280
     1
  9
$DWFFRAME
280
     2
  9
$DGNFRAME
280
     2
  9
$REALWORLDSCALE
290
     1
  9
$INTERFERECOLOR
 62
   256
  9
$CSHADOW
280
     0
  9
$SHADOWPLANELOCATION
 40
0.0
  0
ENDSEC
  0
SECTION
  2
CLASSES
  0
CLASS
  1
ACDBDICTIONARYWDFLT
  2
AcDbDictionaryWithDefault
  3
ObjectDBX Classes
 90
        0
 91
        3
280
     0
281
     0
  0
CLASS
  1
VISUALSTYLE
  2
AcDbVisualStyle
  3
ObjectDBX Classes
 90
     4095
 91
        3
280
     0
281
     0
  0
CLASS
  1
MATERIAL
  2
AcDbMaterial
  3
ObjectDBX Classes
 90
     1153
 91
        3
280
     0
281
     0
  0
CLASS
  1
SCALE
  2
AcDbScale
  3
ObjectDBX Classes
 90
     1153
 91
        3
280
     0
281
     0
  0
CLASS
  1
TABLESTYLE
  2
AcDbTableStyle
  3
ObjectDBX Classes
 90
     4095
 91
        3
280
     0
281
     0
  0
CLASS
  1
MLEADERSTYLE
  2
AcDbMLeaderStyle
  3
ACDB_MLEADERSTYLE_CLASS
 90
     4095
 91
        3
280
     0
281
     0
  0
CLASS
  1
SUN
  2
AcDbSun
  3
SCENEOE
 90
     1153
 91
        3
280
     0
281
     0
  0
CLASS
  1
DICTIONARYVAR
  2
AcDbDictionaryVar
  3
ObjectDBX Classes
 90
        0
 91
        3
280
     0
281
     0
  0
CLASS
  1
CELLSTYLEMAP
  2
AcDbCellStyleMap
  3
ObjectDBX Classes
 90
     1152
 91
        3
280
     0
281
     0
  0
ENDSEC
  0
SECTION
  2
TABLES
  0
TABLE
  2
VPORT
  5
8
330
0
100
AcDbSymbolTable
 70
     1
  0
VPORT
  5
29
330
8
100
AcDbSymbolTableRecord
100
AcDbViewportTableRecord
  2
*Active
 70
     0
 10
0.0
 20
0.0
 11
1.0
 21
1.0
 12
10.42990654205607
 22
4.5
 13
0.0
 23
0.0
 14
0.5
 24
0.5
 15
0.5
 25
0.5
 16
0.0
 26
0.0
 36
1.0
 17
0.0
 27
0.0
 37
0.0
 40
9.0
 41
1.972972972850329
 42
50.0
 43
0.0
 44
0.0
 50
0.0
 51
0.0
 71
     0
 72
   100
 73
     1
 74
     3
 75
     0
 76
     0
 77
     0
 78
     0
281
     0
 65
     1
110
0.0
120
0.0
130
0.0
111
1.0
121
0.0
131
0.0
112
0.0
122
1.0
132
0.0
 79
     0
146
0.0
348
2F
 60
     3
 61
     5
292
     1
282
     1
141
0.0
142
0.0
 63
   250
361
5D
  0
ENDTAB
  0
TABLE
  2
LTYPE
  5
5
330
0
100
AcDbSymbolTable
 70
     1
  0
LTYPE
  5
14
330
5
100
AcDbSymbolTableRecord
100
AcDbLinetypeTableRecord
  2
ByBlock
 70
     0
  3

 72
    65
 73
     0
 40
0.0
  0
LTYPE
  5
15
330
5
100
AcDbSymbolTableRecord
100
AcDbLinetypeTableRecord
  2
ByLayer
 70
     0
  3

 72
    65
 73
     0
 40
0.0
  0
LTYPE
  5
16
330
5
100
AcDbSymbolTableRecord
100
AcDbLinetypeTableRecord
  2
Continuous
 70
     0
  3
Solid line
 72
    65
 73
     0
 40
0.0
  0
ENDTAB
  0
TABLE
  2
LAYER
  5
2
330
0
100
AcDbSymbolTable
 70
     2
  0
LAYER
  5
10
330
2
100
AcDbSymbolTableRecord
100
AcDbLayerTableRecord
  2
0
 70
     0
 62
     7
  6
Continuous
370
    -3
390
F
347
46
  0
LAYER
  5
5F
330
2
100
AcDbSymbolTableRecord
100
AcDbLayerTableRecord
  2
front
 70
     0
 62
     7
  6
Continuous
370
    -3
390
F
347
46
  0
ENDTAB
  0
TABLE
  2
STYLE
  5
3
330
0
100
AcDbSymbolTable
 70
     1
  0
STYLE
  5
11
330
3
100
AcDbSymbolTableRecord
100
AcDbTextStyleTableRecord
  2
Standard
 70
     0
 40
0.0
 41
1.0
 50
0.0
 71
     0
 42
0.2
  3
txt
  4

  0
ENDTAB
  0
TABLE
  2
VIEW
  5
6
330
0
100
AcDbSymbolTable
 70
     0
  0
ENDTAB
  0
TABLE
  2
UCS
  5
7
330
0
100
AcDbSymbolTable
 70
     0
  0
ENDTAB
  0
TABLE
  2
APPID
  5
9
330
0
100
AcDbSymbolTable
 70
     3
  0
APPID
  5
12
330
9
100
AcDbSymbolTableRecord
100
AcDbRegAppTableRecord
  2
ACAD
 70
     0
  0
APPID
  5
5E
330
9
100
AcDbSymbolTableRecord
100
AcDbRegAppTableRecord
  2
Rhino
 70
     0
  0
APPID
  5
277
330
9
100
AcDbSymbolTableRecord
100
AcDbRegAppTableRecord
  2
ACAD_MLEADERVER
 70
     0
  0
ENDTAB
  0
TABLE
  2
DIMSTYLE
  5
A
330
0
100
AcDbSymbolTable
 70
     1
100
AcDbDimStyleTable
  0
DIMSTYLE
105
27
330
A
100
AcDbSymbolTableRecord
100
AcDbDimStyleTableRecord
  2
STANDARD_ACAD
 70
     0
178
     0
340
11
  0
ENDTAB
  0
TABLE
  2
BLOCK_RECORD
  5
1
330
0
100
AcDbSymbolTable
 70
     1
  0
BLOCK_RECORD
  5
1F
330
1
100
AcDbSymbolTableRecord
100
AcDbBlockTableRecord
  2
*Model_Space
340
22
 70
     0
280
     1
281
     0
  0
BLOCK_RECORD
  5
1B
330
1
100
AcDbSymbolTableRecord
100
AcDbBlockTableRecord
  2
*Paper_Space
340
1E
 70
     0
280
     1
281
     0
  0
BLOCK_RECORD
  5
23
330
1
100
AcDbSymbolTableRecord
100
AcDbBlockTableRecord
  2
*Paper_Space0
340
26
 70
     0
280
     1
281
     0
  0
ENDTAB
  0
ENDSEC
  0
SECTION
  2
BLOCKS
  0
BLOCK
  5
20
330
1F
100
AcDbEntity
  8
0
100
AcDbBlockBegin
  2
*Model_Space
 70
     0
 10
0.0
 20
0.0
 30
0.0
  3
*Model_Space
  1

  0
ENDBLK
  5
21
330
1F
100
AcDbEntity
  8
0
100
AcDbBlockEnd
  0
BLOCK
  5
1C
330
1B
100
AcDbEntity
 67
     1
  8
0
100
AcDbBlockBegin
  2
*Paper_Space
 70
     0
 10
0.0
 20
0.0
 30
0.0
  3
*Paper_Space
  1

  0
ENDBLK
  5
1D
330
1B
100
AcDbEntity
 67
     1
  8
0
100
AcDbBlockEnd
  0
BLOCK
  5
24
330
23
100
AcDbEntity
  8
0
100
AcDbBlockBegin
  2
*Paper_Space0
 70
     0
 10
0.0
 20
0.0
 30
0.0
  3
*Paper_Space0
  1

  0
ENDBLK
  5
25
330
23
100
AcDbEntity
  8
0
100
AcDbBlockEnd
  0
ENDSEC
  0
SECTION
  2
ENTITIES
  0
POLYLINE
  5
60
330
1F
100
AcDbEntity
  8
front
370
    -3
100
AcDb2dPolyline
 66
     1
 10
0.0
 20
0.0
 30
0.0
  0
VERTEX
  5
61
330
60
100
AcDbEntity
  8
front
370
    -3
100
AcDbVertex
100
AcDb2dVertex
 10
0.0414998130541242
 20
0.1403499999999995
 30
0.0
  0
VERTEX
  5
62
330
60
100
AcDbEntity
  8
front
370
    -3
100
AcDbVertex
100
AcDb2dVertex
 10
0.0414031332569732
 20
0.1403499999963115
 30
0.0
  0
SEQEND
  5
63
330
60
100
AcDbEntity
  8
front
370
    -3
  0
POLYLINE
  5
64
330
1F
100
AcDbEntity
  8
front
370
    -3
100
AcDb2dPolyline
 66
     1
 10
0.0
 20
0.0
 30
0.0
  0
VERTEX
  5
65
330
64
100
AcDbEntity
  8
front
370
    -3
100
AcDbVertex
100
AcDb2dVertex
 10
0.0114999999999998
 20
0.1248088978185862
 30
0.0
 42
-0.0569987954199927
  0
VERTEX
  5
66
330
64
100
AcDbEntity
  8
front
370
    -3
100
AcDbVertex
100
AcDb2dVertex
 10
0.0115123359085126
 20
0.1249167582632617
 30
0.0
 42
-0.0479014065668266
  0
VERTEX
  5
67
330
64
100
AcDbEntity
  8
front
370
    -3
100
AcDbVertex
100
AcDb2dVertex
 10
0.0115469105567752
 20
0.1250198878940581
 30
0.0
 42
-0.0482879847123046
  0
VERTEX
  5
68
330
64
100
AcDbEntity
  8
front
370
    -3
100
AcDbVertex
100
AcDb2dVertex
 10
0.0116115073573426
 20
0.1251338397283686
 30
0.0
 42
-0.0321957194005185
  0
VERTEX
  5
69
330
64
100
AcDbEntity
  8
front
370
    -3
100
AcDbVertex
100
AcDb2dVertex
 10
0.0116937353149764
 20
0.1252362382129805
 30
0.0
 42
-0.0328732972371213
  0
VERTEX
  5
6A
330
64
100
AcDbEntity
  8
front
370
    -3
100
AcDbVertex
100
AcDb2dVertex
 10
0.0118149676576954
 20
0.1253524192453427
 30
0.0
 42
-0.020931336429227
  0
VERTEX
  5
6B
330
64
100
AcDbEntity
  8
front
370
    -3
100
AcDbVertex
100
AcDb2dVertex
 10
0.0119481447775889
 20
0.1254550434473774
 30
0.0
 42
-0.0215786254355097
  0
VERTEX
  5
6C
330
64
100
AcDbEntity
  8
front
370
    -3
100
AcDbVertex
100
AcDb2dVertex
 10
0.0121277508539704
 20
0.1255705554863363
 30
0.0
 42
-0.0142881928906956
  0
VERTEX
  5
6D
330
64
100
AcDbEntity
  8
front
370
    -3
100
AcDbVertex
100
AcDb2dVertex
 10
0.0123152711791881
 20
0.1256729528624619
 30
0.0
  0
SEQEND
  5
6E
330
64
100
AcDbEntity
  8
front
370
    -3
  0
POLYLINE
  5
6F
330
1F
100
AcDbEntity
  8
front
370
    -3
100
AcDb2dPolyline
 66
     1
 10
0.0
 20
0.0
 30
0.0
  0
VERTEX
  5
70
330
6F
100
AcDbEntity
  8
front
370
    -3
100
AcDbVertex
100
AcDb2dVertex
 10
0.0225499999999652
 20
0.1715875830025158
 30
0.0
 42
0.0187781398176345
  0
VERTEX
  5
71
330
6F
100
AcDbEntity
  8
front
370
    -3
100
AcDbVertex
100
AcDb2dVertex
 10
0.0276956716668635
 20
0.171780903454924
 30
0.0
 42
0.0249034533464656
  0
VERTEX
  5
72
330
6F
100
AcDbEntity
  8
front
370
    -3
100
AcDbVertex
100
AcDb2dVertex
 10
0.032802127582612
 20
0.1724220389660386
 30
0.0
  0
SEQEND
  5
73
330
6F
100
AcDbEntity
  8
front
370
    -3
  0
POLYLINE
  5
74
330
1F
100
AcDbEntity
  8
front
370
    -3
100
AcDb2dPolyline
 66
     1
 10
0.0
 20
0.0
 30
0.0
  0
VERTEX
  5
75
330
74
100
AcDbEntity
  8
front
370
    -3
100
AcDbVertex
100
AcDb2dVertex
 10
0.0122978724173184
 20
0.1724220389660386
 30
0.0
  0
VERTEX
  5
76
330
74
100
AcDbEntity
  8
front
370
    -3
100
AcDbVertex
100
AcDb2dVertex
 10
0.012298086493507
 20
0.1724222611258666
 30
0.0
  0
VERTEX
  5
77
330
74
100
AcDbEntity
  8
front
370
    -3
100
AcDbVertex
100
AcDb2dVertex
 10
0.0122983444606955
 20
0.1724224351320123
 30
0.0
  0
VERTEX
  5
78
330
74
100
AcDbEntity
  8
front
370
    -3
100
AcDbVertex
100
AcDb2dVertex
 10
0.012298747795279
 20
0.1724226360869839
 30
0.0
  0
VERTEX
  5
79
330
74
100
AcDbEntity
  8
front
370
    -3
100
AcDbVertex
100
AcDb2dVertex
 10
0.0122991697212991
 20
0.1724227964642784
 30
0.0
  0
VERTEX
  5
7A
330
74
100
AcDbEntity
  8
front
370
    -3
100
AcDbVertex
100
AcDb2dVertex
 10
0.0123005144405361
 20
0.1724231645258406
 30
0.0
  0
VERTEX
  5
7B
330
74
100
AcDbEntity
  8
front
370
    -3
100
AcDbVertex
100
AcDb2dVertex
 10
0.0123018880898116
 20
0.1724234169916811
 30
0.0
  0
VERTEX
  5
7C
330
74
100
AcDbEntity
  8
front
370
    -3
100
AcDbVertex
100
AcDb2dVertex
 10
0.0123067550873925
 20
0.1724239789627162
 30
0.0
  0
VERTEX
  5
7D
330
74
100
AcDbEntity
  8
front
370
    -3
100
AcDbVertex
100
AcDb2dVertex
 10
0.012311650621238
 20
0.1724242660939875
 30
0.0
 42
-0.0125494582998599
  0
VERTEX
  5
7E
330
74
100
AcDbEntity
  8
front
370
    -3
100
AcDbVertex
100
AcDb2dVertex
 10
0.0123302558739494
 20
0.1724246752598859
 30
0.0
 42
-0.0023532284902374
  0
VERTEX
  5
7F
330
74
100
AcDbEntity
  8
front
370
    -3
100
AcDbVertex
100
AcDb2dVertex
 10
0.012348870713154
 20
0.1724245297701185
 30
0.0
 42
-0.005121387801136
  0
VERTEX
  5
80
330
74
100
AcDbEntity
  8
front
370
    -3
100
AcDbVertex
100
AcDb2dVertex
 10
0.0124227267776968
 20
0.1724228481632813
 30
0.0
 42
-0.0001557628552849
  0
VERTEX
  5
81
330
74
100
AcDbEntity
  8
front
370
    -3
100
AcDbVertex
100
AcDb2dVertex
 10
0.0124965648507641
 20
0.172420387043047
 30
0.0
 42
0.0003386441750785
  0
VERTEX
  5
82
330
74
100
AcDbEntity
  8
front
370
    -3
100
AcDbVertex
100
AcDb2dVertex
 10
0.0127958881869228
 20
0.1724105198035731
 30
0.0
 42
0.0015579394090212
  0
VERTEX
  5
83
330
74
100
AcDbEntity
  8
front
370
    -3
100
AcDbVertex
100
AcDb2dVertex
 10
0.0130952454131837
 20
0.1724017880554351
 30
0.0
 42
0.0045733917082958
  0
VERTEX
  5
84
330
74
100
AcDbEntity
  8
front
370
    -3
100
AcDbVertex
100
AcDb2dVertex
 10
0.0142662810139382
 20
0.1723819986461388
 30
0.0
 42
0.0020971236334635
  0
VERTEX
  5
85
330
74
100
AcDbEntity
  8
front
370
    -3
100
AcDbVertex
100
AcDb2dVertex
 10
0.0154375150991723
 20
0.1723778331368606
 30
0.0
 42
0.0013567748423977
  0
VERTEX
  5
86
330
74
100
AcDbEntity
  8
front
370
    -3
100
AcDbVertex
100
AcDb2dVertex
 10
0.0189937573687097
 20
0.1723897511845785
 30
0.0
 42
-0.0015161116777049
  0
VERTEX
  5
87
330
74
100
AcDbEntity
  8
front
370
    -3
100
AcDbVertex
100
AcDb2dVertex
 10
0.0225499999998456
 20
0.1724005359433985
 30
0.0
  0
SEQEND
  5
88
330
74
100
AcDbEntity
  8
front
370
    -3
  0
POLYLINE
  5
89
330
1F
100
AcDbEntity
  8
front
370
    -3
100
AcDb2dPolyline
 66
     1
 10
0.0
 20
0.0
 30
0.0
  0
VERTEX
  5
8A
330
89
100
AcDbEntity
  8
front
370
    -3
100
AcDbVertex
100
AcDb2dVertex
 10
0.0344999999999999
 20
0.1277433406207875
 30
0.0
 42
-0.0596733623705375
  0
VERTEX
  5
8B
330
89
100
AcDbEntity
  8
front
370
    -3
100
AcDbVertex
100
AcDb2dVertex
 10
0.0344852473853064
 20
0.1276201693985389
 30
0.0
 42
-0.0494173024747285
  0
VERTEX
  5
8C
330
89
100
AcDbEntity
  8
front
370
    -3
100
AcDbVertex
100
AcDb2dVertex
 10
0.0344441175773958
 20
0.1275028401443008
 30
0.0
 42
-0.048275249744469
  0
VERTEX
  5
8D
330
89
100
AcDbEntity
  8
front
370
    -3
100
AcDbVertex
100
AcDb2dVertex
 10
0.0343696820698303
 20
0.1273764937938591
 30
0.0
 42
-0.0318083157139673
  0
VERTEX
  5
8E
330
89
100
AcDbEntity
  8
front
370
    -3
100
AcDbVertex
100
AcDb2dVertex
 10
0.0342758127907257
 20
0.1272633287121562
 30
0.0
 42
-0.0315969742944336
  0
VERTEX
  5
8F
330
89
100
AcDbEntity
  8
front
370
    -3
100
AcDbVertex
100
AcDb2dVertex
 10
0.0341423279210303
 20
0.1271385845178739
 30
0.0
 42
-0.0202739772514553
  0
VERTEX
  5
90
330
89
100
AcDbEntity
  8
front
370
    -3
100
AcDbVertex
100
AcDb2dVertex
 10
0.0339964744158506
 20
0.1270282006828496
 30
0.0
 42
-0.0203111736912644
  0
VERTEX
  5
91
330
89
100
AcDbEntity
  8
front
370
    -3
100
AcDbVertex
100
AcDb2dVertex
 10
0.0338074575029991
 20
0.1269079281243257
 30
0.0
 42
-0.013708956728858
  0
VERTEX
  5
92
330
89
100
AcDbEntity
  8
front
370
    -3
100
AcDbVertex
100
AcDb2dVertex
 10
0.0336106132590673
 20
0.1268007351183776
 30
0.0
  0
SEQEND
  5
93
330
89
100
AcDbEntity
  8
front
370
    -3
  0
POLYLINE
  5
94
330
1F
100
AcDbEntity
  8
front
370
    -3
100
AcDb2dPolyline
 66
     1
 10
0.0
 20
0.0
 30
0.0
  0
VERTEX
  5
95
330
94
100
AcDbEntity
  8
front
370
    -3
100
AcDbVertex
100
AcDb2dVertex
 10
0.0114999999999999
 20
0.1267462311798984
 30
0.0
 42
-0.0133063396548862
  0
VERTEX
  5
96
330
94
100
AcDbEntity
  8
front
370
    -3
100
AcDbVertex
100
AcDb2dVertex
 10
0.0112794642598659
 20
0.1268586975684309
 30
0.0
 42
-0.0199222914766677
  0
VERTEX
  5
97
330
94
100
AcDbEntity
  8
front
370
    -3
100
AcDbVertex
100
AcDb2dVertex
 10
0.0110669766326699
 20
0.1269855038857909
 30
0.0
 42
-0.0198696920292605
  0
VERTEX
  5
98
330
94
100
AcDbEntity
  8
front
370
    -3
100
AcDbVertex
100
AcDb2dVertex
 10
0.0109033142634578
 20
0.1271017556131639
 30
0.0
 42
-0.0316610202491397
  0
VERTEX
  5
99
330
94
100
AcDbEntity
  8
front
370
    -3
100
AcDbVertex
100
AcDb2dVertex
 10
0.0107526598755292
 20
0.1272340630667248
 30
0.0
 42
-0.0318445789677335
  0
VERTEX
  5
9A
330
94
100
AcDbEntity
  8
front
370
    -3
100
AcDbVertex
100
AcDb2dVertex
 10
0.0106472704370225
 20
0.1273534566418531
 30
0.0
 42
-0.0500513114291393
  0
VERTEX
  5
9B
330
94
100
AcDbEntity
  8
front
370
    -3
100
AcDbVertex
100
AcDb2dVertex
 10
0.0105629974036299
 20
0.1274880263330786
 30
0.0
 42
-0.0514711636198248
  0
VERTEX
  5
9C
330
94
100
AcDbEntity
  8
front
370
    -3
100
AcDbVertex
100
AcDb2dVertex
 10
0.0105167259220037
 20
0.1276122286426921
 30
0.0
 42
-0.0635274549836785
  0
VERTEX
  5
9D
330
94
100
AcDbEntity
  8
front
370
    -3
100
AcDbVertex
100
AcDb2dVertex
 10
0.0104999999999999
 20
0.1277433406207875
 30
0.0
  0
SEQEND
  5
9E
330
94
100
AcDbEntity
  8
front
370
    -3
  0
POLYLINE
  5
9F
330
1F
100
AcDbEntity
  8
front
370
    -3
100
AcDb2dPolyline
 66
     1
 10
0.0
 20
0.0
 30
0.0
  0
VERTEX
  5
A0
330
9F
100
AcDbEntity
  8
front
370
    -3
100
AcDbVertex
100
AcDb2dVertex
 10
0.022514542806882
 20
0.1299065064604771
 30
0.0
  0
VERTEX
  5
A1
330
9F
100
AcDbEntity
  8
front
370
    -3
100
AcDbVertex
100
AcDb2dVertex
 10
0.0225072714033992
 20
0.1299065054156718
 30
0.0
  0
VERTEX
  5
A2
330
9F
100
AcDbEntity
  8
front
370
    -3
100
AcDbVertex
100
AcDb2dVertex
 10
0.0225
 20
0.1299065038966211
 30
0.0
  0
SEQEND
  5
A3
330
9F
100
AcDbEntity
  8
front
370
    -3
  0
POLYLINE
  5
A4
330
1F
100
AcDbEntity
  8
front
370
    -3
100
AcDb2dPolyline
 66
     1
 10
0.0
 20
0.0
 30
0.0
  0
VERTEX
  5
A5
330
A4
100
AcDbEntity
  8
front
370
    -3
100
AcDbVertex
100
AcDb2dVertex
 10
0.0036616561741432
 20
0.1403330809545976
 30
0.0
 42
-0.0149861181575711
  0
VERTEX
  5
A6
330
A4
100
AcDbEntity
  8
front
370
    -3
100
AcDbVertex
100
AcDb2dVertex
 10
0.0036464911158618
 20
0.1403334912173558
 30
0.0
 42
-0.0353147590022245
  0
VERTEX
  5
A7
330
A4
100
AcDbEntity
  8
front
370
    -3
100
AcDbVertex
100
AcDb2dVertex
 10
0.003631474617701
 20
0.1403354180453251
 30
0.0
  0
VERTEX
  5
A8
330
A4
100
AcDbEntity
  8
front
370
    -3
100
AcDbVertex
100
AcDb2dVertex
 10
0.0036223358731716
 20
0.1403376314856299
 30
0.0
  0
VERTEX
  5
A9
330
A4
100
AcDbEntity
  8
front
370
    -3
100
AcDbVertex
100
AcDb2dVertex
 10
0.0036134316438288
 20
0.1403406409178215
 30
0.0
  0
VERTEX
  5
AA
330
A4
100
AcDbEntity
  8
front
370
    -3
100
AcDbVertex
100
AcDb2dVertex
 10
0.00360476025852
 20
0.1403446639803878
 30
0.0
  0
VERTEX
  5
AB
330
A4
100
AcDbEntity
  8
front
370
    -3
100
AcDbVertex
100
AcDb2dVertex
 10
0.0035968667430268
 20
0.1403499999963131
 30
0.0
  0
SEQEND
  5
AC
330
A4
100
AcDbEntity
  8
front
370
    -3
  0
POLYLINE
  5
AD
330
1F
100
AcDbEntity
  8
front
370
    -3
100
AcDb2dPolyline
 66
     1
 10
0.0
 20
0.0
 30
0.0
  0
VERTEX
  5
AE
330
AD
100
AcDbEntity
  8
front
370
    -3
100
AcDbVertex
100
AcDb2dVertex
 10
0.0336106132590673
 20
0.1268007351183776
 30
0.0
 42
-0.0034243817431208
  0
VERTEX
  5
AF
330
AD
100
AcDbEntity
  8
front
370
    -3
100
AcDbVertex
100
AcDb2dVertex
 10
0.0335554856379117
 20
0.1267731201198568
 30
0.0
 42
-0.0031404041889289
  0
VERTEX
  5
B0
330
AD
100
AcDbEntity
  8
front
370
    -3
100
AcDbVertex
100
AcDb2dVertex
 10
0.0334999999999999
 20
0.1267462311798985
 30
0.0
  0
SEQEND
  5
B1
330
AD
100
AcDbEntity
  8
front
370
    -3
  0
POLYLINE
  5
B2
330
1F
100
AcDbEntity
  8
front
370
    -3
100
AcDb2dPolyline
 66
     1
 10
0.0
 20
0.0
 30
0.0
  0
VERTEX
  5
B3
330
B2
100
AcDbEntity
  8
front
370
    -3
100
AcDbVertex
100
AcDb2dVertex
 10
0.0413111784585488
 20
0.1769963709354464
 30
0.0
 42
-0.0622209670760533
  0
VERTEX
  5
B4
330
B2
100
AcDbEntity
  8
front
370
    -3
100
AcDbVertex
100
AcDb2dVertex
 10
0.0413776994076284
 20
0.1769355931905363
 30
0.0
 42
-0.058808391295559
  0
VERTEX
  5
B5
330
B2
100
AcDbEntity
  8
front
370
    -3
100
AcDbVertex
100
AcDb2dVertex
 10
0.0414277760019206
 20
0.1768605949894684
 30
0.0
  0
SEQEND
  5
B6
330
B2
100
AcDbEntity
  8
front
370
    -3
  0
POLYLINE
  5
B7
330
1F
100
AcDbEntity
  8
front
370
    -3
100
AcDb2dPolyline
 66
     1
 10
0.0
 20
0.0
 30
0.0
  0
VERTEX
  5
B8
330
B7
100
AcDbEntity
  8
front
370
    -3
100
AcDbVertex
100
AcDb2dVertex
 10
0.034502590989506
 20
0.1281359570658052
 30
0.0
 42
0.1065506386650873
  0
VERTEX
  5
B9
330
B7
100
AcDbEntity
  8
front
370
    -3
100
AcDbVertex
100
AcDb2dVertex
 10
0.0393596084837774
 20
0.1334619176294051
 30
0.0
 42
0.123973647684869
  0
VERTEX
  5
BA
330
B7
100
AcDbEntity
  8
front
370
    -3
100
AcDbVertex
100
AcDb2dVertex
 10
0.0413383438258581
 20
0.1403330809545974
 30
0.0
  0
SEQEND
  5
BB
330
B7
100
AcDbEntity
  8
front
370
    -3
  0
POLYLINE
  5
BC
330
1F
100
AcDbEntity
  8
front
370
    -3
100
AcDb2dPolyline
 66
     1
 10
0.0
 20
0.0
 30
0.0
  0
VERTEX
  5
BD
330
BC
100
AcDbEntity
  8
front
370
    -3
100
AcDbVertex
100
AcDb2dVertex
 10
0.0225499999999652
 20
0.1715875830025158
 30
0.0
 42
-0.0187781398176345
  0
VERTEX
  5
BE
330
BC
100
AcDbEntity
  8
front
370
    -3
100
AcDbVertex
100
AcDb2dVertex
 10
0.0174043283330669
 20
0.171780903454924
 30
0.0
 42
-0.0249034533464681
  0
VERTEX
  5
BF
330
BC
100
AcDbEntity
  8
front
370
    -3
100
AcDbVertex
100
AcDb2dVertex
 10
0.0122978724173184
 20
0.1724220389660386
 30
0.0
  0
SEQEND
  5
C0
330
BC
100
AcDbEntity
  8
front
370
    -3
  0
POLYLINE
  5
C1
330
1F
100
AcDbEntity
  8
front
370
    -3
100
AcDb2dPolyline
 66
     1
 10
0.0
 20
0.0
 30
0.0
  0
VERTEX
  5
C2
330
C1
100
AcDbEntity
  8
front
370
    -3
100
AcDbVertex
100
AcDb2dVertex
 10
0.0035001869458758
 20
0.1403499999999995
 30
0.0
  0
VERTEX
  5
C3
330
C1
100
AcDbEntity
  8
front
370
    -3
100
AcDbVertex
100
AcDb2dVertex
 10
0.0035968667430268
 20
0.1403499999963131
 30
0.0
  0
SEQEND
  5
C4
330
C1
100
AcDbEntity
  8
front
370
    -3
  0
POLYLINE
  5
C5
330
1F
100
AcDbEntity
  8
front
370
    -3
100
AcDb2dPolyline
 66
     1
 10
0.0
 20
0.0
 30
0.0
  0
VERTEX
  5
C6
330
C5
100
AcDbEntity
  8
front
370
    -3
100
AcDbVertex
100
AcDb2dVertex
 10
0.032802127582612
 20
0.1724220389660386
 30
0.0
  0
VERTEX
  5
C7
330
C5
100
AcDbEntity
  8
front
370
    -3
100
AcDbVertex
100
AcDb2dVertex
 10
0.0328019135064234
 20
0.1724222611258667
 30
0.0
  0
VERTEX
  5
C8
330
C5
100
AcDbEntity
  8
front
370
    -3
100
AcDbVertex
100
AcDb2dVertex
 10
0.0328016555392349
 20
0.1724224351320124
 30
0.0
  0
VERTEX
  5
C9
330
C5
100
AcDbEntity
  8
front
370
    -3
100
AcDbVertex
100
AcDb2dVertex
 10
0.0328012522046514
 20
0.1724226360869839
 30
0.0
  0
VERTEX
  5
CA
330
C5
100
AcDbEntity
  8
front
370
    -3
100
AcDbVertex
100
AcDb2dVertex
 10
0.0328008302786313
 20
0.1724227964642784
 30
0.0
  0
VERTEX
  5
CB
330
C5
100
AcDbEntity
  8
front
370
    -3
100
AcDbVertex
100
AcDb2dVertex
 10
0.0327994855593943
 20
0.1724231645258406
 30
0.0
  0
VERTEX
  5
CC
330
C5
100
AcDbEntity
  8
front
370
    -3
100
AcDbVertex
100
AcDb2dVertex
 10
0.0327981119101188
 20
0.1724234169916811
 30
0.0
  0
VERTEX
  5
CD
330
C5
100
AcDbEntity
  8
front
370
    -3
100
AcDbVertex
100
AcDb2dVertex
 10
0.0327932449125379
 20
0.1724239789627162
 30
0.0
  0
VERTEX
  5
CE
330
C5
100
AcDbEntity
  8
front
370
    -3
100
AcDbVertex
100
AcDb2dVertex
 10
0.0327883493786924
 20
0.1724242660939874
 30
0.0
 42
0.012549458300963
  0
VERTEX
  5
CF
330
C5
100
AcDbEntity
  8
front
370
    -3
100
AcDbVertex
100
AcDb2dVertex
 10
0.032769744125981
 20
0.1724246752598858
 30
0.0
 42
0.0023532284897662
  0
VERTEX
  5
D0
330
C5
100
AcDbEntity
  8
front
370
    -3
100
AcDbVertex
100
AcDb2dVertex
 10
0.0327511292867764
 20
0.1724245297701184
 30
0.0
 42
0.0051213878012682
  0
VERTEX
  5
D1
330
C5
100
AcDbEntity
  8
front
370
    -3
100
AcDbVertex
100
AcDb2dVertex
 10
0.0326772732222336
 20
0.1724228481632811
 30
0.0
 42
0.0001557628546574
  0
VERTEX
  5
D2
330
C5
100
AcDbEntity
  8
front
370
    -3
100
AcDbVertex
100
AcDb2dVertex
 10
0.0326034351491663
 20
0.1724203870430469
 30
0.0
 42
-0.0003386441744043
  0
VERTEX
  5
D3
330
C5
100
AcDbEntity
  8
front
370
    -3
100
AcDbVertex
100
AcDb2dVertex
 10
0.0323041118130076
 20
0.1724105198035731
 30
0.0
 42
-0.0015579394092283
  0
VERTEX
  5
D4
330
C5
100
AcDbEntity
  8
front
370
    -3
100
AcDbVertex
100
AcDb2dVertex
 10
0.0320047545867467
 20
0.172401788055435
 30
0.0
 42
-0.0045733917082549
  0
VERTEX
  5
D5
330
C5
100
AcDbEntity
  8
front
370
    -3
100
AcDbVertex
100
AcDb2dVertex
 10
0.0308337189859922
 20
0.1723819986461388
 30
0.0
 42
-0.0020971236334435
  0
VERTEX
  5
D6
330
C5
100
AcDbEntity
  8
front
370
    -3
100
AcDbVertex
100
AcDb2dVertex
 10
0.0296624849007581
 20
0.1723778331368606
 30
0.0
 42
-0.0013567748423878
  0
VERTEX
  5
D7
330
C5
100
AcDbEntity
  8
front
370
    -3
100
AcDbVertex
100
AcDb2dVertex
 10
0.0261062426311011
 20
0.1723897511845786
 30
0.0
 42
0.0015161116776597
  0
VERTEX
  5
D8
330
C5
100
AcDbEntity
  8
front
370
    -3
100
AcDbVertex
100
AcDb2dVertex
 10
0.0225499999998456
 20
0.1724005359433985
 30
0.0
  0
SEQEND
  5
D9
330
C5
100
AcDbEntity
  8
front
370
    -3
  0
POLYLINE
  5
DA
330
1F
100
AcDbEntity
  8
front
370
    -3
100
AcDb2dPolyline
 66
     1
 10
0.0
 20
0.0
 30
0.0
  0
VERTEX
  5
DB
330
DA
100
AcDbEntity
  8
front
370
    -3
100
AcDbVertex
100
AcDb2dVertex
 10
0.0117513635896757
 20
0.1243227748832465
 30
0.0
  0
VERTEX
  5
DC
330
DA
100
AcDbEntity
  8
front
370
    -3
100
AcDbVertex
100
AcDb2dVertex
 10
0.0116256817702807
 20
0.1244429010282582
 30
0.0
  0
VERTEX
  5
DD
330
DA
100
AcDbEntity
  8
front
370
    -3
100
AcDbVertex
100
AcDb2dVertex
 10
0.0114999999508857
 20
0.12456302717327
 30
0.0
  0
SEQEND
  5
DE
330
DA
100
AcDbEntity
  8
front
370
    -3
  0
POLYLINE
  5
DF
330
1F
100
AcDbEntity
  8
front
370
    -3
100
AcDb2dPolyline
 66
     1
 10
0.0
 20
0.0
 30
0.0
  0
VERTEX
  5
E0
330
DF
100
AcDbEntity
  8
front
370
    -3
100
AcDbVertex
100
AcDb2dVertex
 10
0.0335000000491142
 20
0.1245630271732699
 30
0.0
  0
VERTEX
  5
E1
330
DF
100
AcDbEntity
  8
front
370
    -3
100
AcDbVertex
100
AcDb2dVertex
 10
0.0333743182297191
 20
0.1244429010282582
 30
0.0
  0
VERTEX
  5
E2
330
DF
100
AcDbEntity
  8
front
370
    -3
100
AcDbVertex
100
AcDb2dVertex
 10
0.0332486364103241
 20
0.1243227748832464
 30
0.0
  0
SEQEND
  5
E3
330
DF
100
AcDbEntity
  8
front
370
    -3
  0
POLYLINE
  5
E4
330
1F
100
AcDbEntity
  8
front
370
    -3
100
AcDb2dPolyline
 66
     1
 10
0.0
 20
0.0
 30
0.0
  0
VERTEX
  5
E5
330
E4
100
AcDbEntity
  8
front
370
    -3
100
AcDbVertex
100
AcDb2dVertex
 10
0.032802127582612
 20
0.1724220389660386
 30
0.0
 42
0.0114461963630541
  0
VERTEX
  5
E6
330
E4
100
AcDbEntity
  8
front
370
    -3
100
AcDbVertex
100
AcDb2dVertex
 10
0.0346962273761317
 20
0.1728016670785236
 30
0.0
 42
0.0166455771922198
  0
VERTEX
  5
E7
330
E4
100
AcDbEntity
  8
front
370
    -3
100
AcDbVertex
100
AcDb2dVertex
 10
0.0365654767252975
 20
0.1732869080646691
 30
0.0
 42
0.0159836143577444
  0
VERTEX
  5
E8
330
E4
100
AcDbEntity
  8
front
370
    -3
100
AcDbVertex
100
AcDb2dVertex
 10
0.0380035368879437
 20
0.1737622498847532
 30
0.0
 42
0.0300181479857125
  0
VERTEX
  5
E9
330
E4
100
AcDbEntity
  8
front
370
    -3
100
AcDbVertex
100
AcDb2dVertex
 10
0.0393900646354729
 20
0.1743668913167293
 30
0.0
  0
SEQEND
  5
EA
330
E4
100
AcDbEntity
  8
front
370
    -3
  0
POLYLINE
  5
EB
330
1F
100
AcDbEntity
  8
front
370
    -3
100
AcDb2dPolyline
 66
     1
 10
0.0
 20
0.0
 30
0.0
  0
VERTEX
  5
EC
330
EB
100
AcDbEntity
  8
front
370
    -3
100
AcDbVertex
100
AcDb2dVertex
 10
0.0117513635897842
 20
0.1243227748831427
 30
0.0
 42
-0.0321634355937269
  0
VERTEX
  5
ED
330
EB
100
AcDbEntity
  8
front
370
    -3
100
AcDbVertex
100
AcDb2dVertex
 10
0.0116457799296296
 20
0.124437554538966
 30
0.0
 42
-0.0520839445283273
  0
VERTEX
  5
EE
330
EB
100
AcDbEntity
  8
front
370
    -3
100
AcDbVertex
100
AcDb2dVertex
 10
0.0115612090358178
 20
0.1245679666292088
 30
0.0
  0
SEQEND
  5
EF
330
EB
100
AcDbEntity
  8
front
370
    -3
  0
POLYLINE
  5
F0
330
1F
100
AcDbEntity
  8
front
370
    -3
100
AcDb2dPolyline
 66
     1
 10
0.0
 20
0.0
 30
0.0
  0
VERTEX
  5
F1
330
F0
100
AcDbEntity
  8
front
370
    -3
100
AcDbVertex
100
AcDb2dVertex
 10
0.0115000674978145
 20
0.1248008859385
 30
0.0
  0
VERTEX
  5
F2
330
F0
100
AcDbEntity
  8
front
370
    -3
100
AcDbVertex
100
AcDb2dVertex
 10
0.0115000168758985
 20
0.1248048917364024
 30
0.0
  0
VERTEX
  5
F3
330
F0
100
AcDbEntity
  8
front
370
    -3
100
AcDbVertex
100
AcDb2dVertex
 10
0.0114999999999998
 20
0.1248088978185862
 30
0.0
  0
SEQEND
  5
F4
330
F0
100
AcDbEntity
  8
front
370
    -3
  0
POLYLINE
  5
F5
330
1F
100
AcDbEntity
  8
front
370
    -3
100
AcDb2dPolyline
 66
     1
 10
0.0
 20
0.0
 30
0.0
  0
VERTEX
  5
F6
330
F5
100
AcDbEntity
  8
front
370
    -3
100
AcDbVertex
100
AcDb2dVertex
 10
0.0115612090358178
 20
0.1245679666292089
 30
0.0
 42
-0.0489667547137554
  0
VERTEX
  5
F7
330
F5
100
AcDbEntity
  8
front
370
    -3
100
AcDbVertex
100
AcDb2dVertex
 10
0.0115182172357722
 20
0.1246777065368969
 30
0.0
 42
-0.0610595777921401
  0
VERTEX
  5
F8
330
F5
100
AcDbEntity
  8
front
370
    -3
100
AcDbVertex
100
AcDb2dVertex
 10
0.0115002374488743
 20
0.1247938707951192
 30
0.0
  0
SEQEND
  5
F9
330
F5
100
AcDbEntity
  8
front
370
    -3
  0
POLYLINE
  5
FA
330
1F
100
AcDbEntity
  8
front
370
    -3
100
AcDb2dPolyline
 66
     1
 10
0.0
 20
0.0
 30
0.0
  0
VERTEX
  5
FB
330
FA
100
AcDbEntity
  8
front
370
    -3
100
AcDbVertex
100
AcDb2dVertex
 10
0.0345819626637178
 20
0.129097751574665
 30
0.0
  0
VERTEX
  5
FC
330
FA
100
AcDbEntity
  8
front
370
    -3
100
AcDbVertex
100
AcDb2dVertex
 10
0.0345825374214084
 20
0.12909665449959
 30
0.0
  0
VERTEX
  5
FD
330
FA
100
AcDbEntity
  8
front
370
    -3
100
AcDbVertex
100
AcDb2dVertex
 10
0.0345831038751629
 20
0.129095553114126
 30
0.0
  0
SEQEND
  5
FE
330
FA
100
AcDbEntity
  8
front
370
    -3
  0
POLYLINE
  5
FF
330
1F
100
AcDbEntity
  8
front
370
    -3
100
AcDb2dPolyline
 66
     1
 10
0.0
 20
0.0
 30
0.0
  0
VERTEX
  5
100
330
FF
100
AcDbEntity
  8
front
370
    -3
100
AcDbVertex
100
AcDb2dVertex
 10
0.0414453159489687
 20
0.1405769970230124
 30
0.0
 42
-0.0589732064248696
  0
VERTEX
  5
101
330
FF
100
AcDbEntity
  8
front
370
    -3
100
AcDbVertex
100
AcDb2dVertex
 10
0.0414859979348457
 20
0.1404667235935026
 30
0.0
 42
-0.0589729655169087
  0
VERTEX
  5
102
330
FF
100
AcDbEntity
  8
front
370
    -3
100
AcDbVertex
100
AcDb2dVertex
 10
0.0414998130541242
 20
0.1403499999999995
 30
0.0
  0
SEQEND
  5
103
330
FF
100
AcDbEntity
  8
front
370
    -3
  0
POLYLINE
  5
104
330
1F
100
AcDbEntity
  8
front
370
    -3
100
AcDb2dPolyline
 66
     1
 10
0.0
 20
0.0
 30
0.0
  0
VERTEX
  5
105
330
104
100
AcDbEntity
  8
front
370
    -3
100
AcDbVertex
100
AcDb2dVertex
 10
0.0105012967602455
 20
0.1281331682511049
 30
0.0
 42
-0.1066121469185465
  0
VERTEX
  5
106
330
104
100
AcDbEntity
  8
front
370
    -3
100
AcDbVertex
100
AcDb2dVertex
 10
0.0056421881664602
 20
0.1334599147258716
 30
0.0
 42
-0.1239002014748484
  0
VERTEX
  5
107
330
104
100
AcDbEntity
  8
front
370
    -3
100
AcDbVertex
100
AcDb2dVertex
 10
0.0036616561741431
 20
0.1403330809545976
 30
0.0
  0
SEQEND
  5
108
330
104
100
AcDbEntity
  8
front
370
    -3
  0
POLYLINE
  5
109
330
1F
100
AcDbEntity
  8
front
370
    -3
100
AcDb2dPolyline
 66
     1
 10
0.0
 20
0.0
 30
0.0
  0
VERTEX
  5
10A
330
109
100
AcDbEntity
  8
front
370
    -3
100
AcDbVertex
100
AcDb2dVertex
 10
0.0335
 20
0.1248088978185844
 30
0.0
 42
-0.0569987954198747
  0
VERTEX
  5
10B
330
109
100
AcDbEntity
  8
front
370
    -3
100
AcDbVertex
100
AcDb2dVertex
 10
0.033487664091487
 20
0.124701037373909
 30
0.0
 42
-0.0479014065665329
  0
VERTEX
  5
10C
330
109
100
AcDbEntity
  8
front
370
    -3
100
AcDbVertex
100
AcDb2dVertex
 10
0.0334530894432241
 20
0.1245979077431129
 30
0.0
 42
-0.0482879847120477
  0
VERTEX
  5
10D
330
109
100
AcDbEntity
  8
front
370
    -3
100
AcDbVertex
100
AcDb2dVertex
 10
0.0333884926426565
 20
0.1244839559088026
 30
0.0
 42
-0.0321957194003773
  0
VERTEX
  5
10E
330
109
100
AcDbEntity
  8
front
370
    -3
100
AcDbVertex
100
AcDb2dVertex
 10
0.0333062646850226
 20
0.1243815574241909
 30
0.0
 42
-0.0328732972370052
  0
VERTEX
  5
10F
330
109
100
AcDbEntity
  8
front
370
    -3
100
AcDbVertex
100
AcDb2dVertex
 10
0.0331850323423037
 20
0.1242653763918289
 30
0.0
 42
-0.0209313364292029
  0
VERTEX
  5
110
330
109
100
AcDbEntity
  8
front
370
    -3
100
AcDbVertex
100
AcDb2dVertex
 10
0.0330518552224103
 20
0.1241627521897944
 30
0.0
 42
-0.0215786254353949
  0
VERTEX
  5
111
330
109
100
AcDbEntity
  8
front
370
    -3
100
AcDbVertex
100
AcDb2dVertex
 10
0.0328722491460291
 20
0.1240472401508358
 30
0.0
 42
-0.0142881928906871
  0
VERTEX
  5
112
330
109
100
AcDbEntity
  8
front
370
    -3
100
AcDbVertex
100
AcDb2dVertex
 10
0.0326847288208117
 20
0.1239448427747104
 30
0.0
  0
SEQEND
  5
113
330
109
100
AcDbEntity
  8
front
370
    -3
  0
POLYLINE
  5
114
330
1F
100
AcDbEntity
  8
front
370
    -3
100
AcDb2dPolyline
 66
     1
 10
0.0
 20
0.0
 30
0.0
  0
VERTEX
  5
115
330
114
100
AcDbEntity
  8
front
370
    -3
100
AcDbVertex
100
AcDb2dVertex
 10
0.0393900646354729
 20
0.1743668913167292
 30
0.0
 42
0.02547525068685
  0
VERTEX
  5
116
330
114
100
AcDbEntity
  8
front
370
    -3
100
AcDbVertex
100
AcDb2dVertex
 10
0.040209268458718
 20
0.174838308678561
 30
0.0
 42
0.0583361330740527
  0
VERTEX
  5
117
330
114
100
AcDbEntity
  8
front
370
    -3
100
AcDbVertex
100
AcDb2dVertex
 10
0.040934420418216
 20
0.1754363860171825
 30
0.0
 42
0.0311071578944781
  0
VERTEX
  5
118
330
114
100
AcDbEntity
  8
front
370
    -3
100
AcDbVertex
100
AcDb2dVertex
 10
0.0411604092670931
 20
0.175703384198141
 30
0.0
 42
0.0474692406727723
  0
VERTEX
  5
119
330
114
100
AcDbEntity
  8
front
370
    -3
100
AcDbVertex
100
AcDb2dVertex
 10
0.0413413875568177
 20
0.1760016763465434
 30
0.0
 42
0.0497456624403481
  0
VERTEX
  5
11A
330
114
100
AcDbEntity
  8
front
370
    -3
100
AcDbVertex
100
AcDb2dVertex
 10
0.0414446049352094
 20
0.1762835088419485
 30
0.0
 42
0.0614330321440431
  0
VERTEX
  5
11B
330
114
100
AcDbEntity
  8
front
370
    -3
100
AcDbVertex
100
AcDb2dVertex
 10
0.0414830988545889
 20
0.1765803835602587
 30
0.0
  0
SEQEND
  5
11C
330
114
100
AcDbEntity
  8
front
370
    -3
  0
POLYLINE
  5
11D
330
1F
100
AcDbEntity
  8
front
370
    -3
100
AcDb2dPolyline
 66
     1
 10
0.0
 20
0.0
 30
0.0
  0
VERTEX
  5
11E
330
11D
100
AcDbEntity
  8
front
370
    -3
100
AcDbVertex
100
AcDb2dVertex
 10
0.0041613649045946
 20
0.1408499999999996
 30
0.0
 42
0.0604794298697047
  0
VERTEX
  5
11F
330
11D
100
AcDbEntity
  8
front
370
    -3
100
AcDbVertex
100
AcDb2dVertex
 10
0.0040443497993205
 20
0.140835794024223
 30
0.0
 42
0.0574670087257027
  0
VERTEX
  5
120
330
11D
100
AcDbEntity
  8
front
370
    -3
100
AcDbVertex
100
AcDb2dVertex
 10
0.0039338056232039
 20
0.1407946346887143
 30
0.0
  0
SEQEND
  5
121
330
11D
100
AcDbEntity
  8
front
370
    -3
  0
POLYLINE
  5
122
330
1F
100
AcDbEntity
  8
front
370
    -3
100
AcDb2dPolyline
 66
     1
 10
0.0
 20
0.0
 30
0.0
  0
VERTEX
  5
123
330
122
100
AcDbEntity
  8
front
370
    -3
100
AcDbVertex
100
AcDb2dVertex
 10
0.0114999999999999
 20
0.126784154860209
 30
0.0
 42
-0.0349568608376868
  0
VERTEX
  5
124
330
122
100
AcDbEntity
  8
front
370
    -3
100
AcDbVertex
100
AcDb2dVertex
 10
0.0123750826203213
 20
0.1271287062328139
 30
0.0
 42
-0.015188923262447
  0
VERTEX
  5
125
330
122
100
AcDbEntity
  8
front
370
    -3
100
AcDbVertex
100
AcDb2dVertex
 10
0.0132820541451437
 20
0.1273844442704249
 30
0.0
 42
-0.0169874650820811
  0
VERTEX
  5
126
330
122
100
AcDbEntity
  8
front
370
    -3
100
AcDbVertex
100
AcDb2dVertex
 10
0.0145968168320606
 20
0.1276653449492727
 30
0.0
 42
-0.0102955786469449
  0
VERTEX
  5
127
330
122
100
AcDbEntity
  8
front
370
    -3
100
AcDbVertex
100
AcDb2dVertex
 10
0.0159254269446507
 20
0.1278742032436302
 30
0.0
 42
-0.0197771855582951
  0
VERTEX
  5
128
330
122
100
AcDbEntity
  8
front
370
    -3
100
AcDbVertex
100
AcDb2dVertex
 10
0.0192051757996748
 20
0.1281893179422397
 30
0.0
 42
-0.0281252538099378
  0
VERTEX
  5
129
330
122
100
AcDbEntity
  8
front
370
    -3
100
AcDbVertex
100
AcDb2dVertex
 10
0.0257948242003251
 20
0.1281893179422397
 30
0.0
 42
-0.0197771855582877
  0
VERTEX
  5
12A
330
122
100
AcDbEntity
  8
front
370
    -3
100
AcDbVertex
100
AcDb2dVertex
 10
0.0290745730553491
 20
0.1278742032436302
 30
0.0
 42
-0.0102955786469546
  0
VERTEX
  5
12B
330
122
100
AcDbEntity
  8
front
370
    -3
100
AcDbVertex
100
AcDb2dVertex
 10
0.0304031831679392
 20
0.1276653449492727
 30
0.0
 42
-0.016987465082083
  0
VERTEX
  5
12C
330
122
100
AcDbEntity
  8
front
370
    -3
100
AcDbVertex
100
AcDb2dVertex
 10
0.0317179458548562
 20
0.1273844442704249
 30
0.0
 42
-0.0151889232624469
  0
VERTEX
  5
12D
330
122
100
AcDbEntity
  8
front
370
    -3
100
AcDbVertex
100
AcDb2dVertex
 10
0.0326249173796786
 20
0.1271287062328139
 30
0.0
 42
-0.0349568608376842
  0
VERTEX
  5
12E
330
122
100
AcDbEntity
  8
front
370
    -3
100
AcDbVertex
100
AcDb2dVertex
 10
0.0334999999999999
 20
0.126784154860209
 30
0.0
  0
SEQEND
  5
12F
330
122
100
AcDbEntity
  8
front
370
    -3
  0
POLYLINE
  5
130
330
1F
100
AcDbEntity
  8
front
370
    -3
100
AcDb2dPolyline
 66
     1
 10
0.0
 20
0.0
 30
0.0
  0
VERTEX
  5
131
330
130
100
AcDbEntity
  8
front
370
    -3
100
AcDbVertex
100
AcDb2dVertex
 10
0.0123152711791881
 20
0.1256729528624619
 30
0.0
 42
-0.040171085033004
  0
VERTEX
  5
132
330
130
100
AcDbEntity
  8
front
370
    -3
100
AcDbVertex
100
AcDb2dVertex
 10
0.0131483293378313
 20
0.1260163011601966
 30
0.0
 42
-0.0159788642594628
  0
VERTEX
  5
133
330
130
100
AcDbEntity
  8
front
370
    -3
100
AcDbVertex
100
AcDb2dVertex
 10
0.0140169623541608
 20
0.126264844949962
 30
0.0
 42
-0.017746063826395
  0
VERTEX
  5
134
330
130
100
AcDbEntity
  8
front
370
    -3
100
AcDbVertex
100
AcDb2dVertex
 10
0.0152668601840749
 20
0.1265328751922595
 30
0.0
 42
-0.0105554360463303
  0
VERTEX
  5
135
330
130
100
AcDbEntity
  8
front
370
    -3
100
AcDbVertex
100
AcDb2dVertex
 10
0.0165304327864165
 20
0.1267298518343793
 30
0.0
 42
-0.0194512061509409
  0
VERTEX
  5
136
330
130
100
AcDbEntity
  8
front
370
    -3
100
AcDbVertex
100
AcDb2dVertex
 10
0.0195085534469875
 20
0.1270125348660119
 30
0.0
 42
-0.0139356253429554
  0
VERTEX
  5
137
330
130
100
AcDbEntity
  8
front
370
    -3
100
AcDbVertex
100
AcDb2dVertex
 10
0.0225000000000041
 20
0.1270959264175815
 30
0.0
 42
-0.0173535397640726
  0
VERTEX
  5
138
330
130
100
AcDbEntity
  8
front
370
    -3
100
AcDbVertex
100
AcDb2dVertex
 10
0.0264095758888274
 20
0.1269601955815774
 30
0.0
 42
-0.0339090023327344
  0
VERTEX
  5
139
330
130
100
AcDbEntity
  8
front
370
    -3
100
AcDbVertex
100
AcDb2dVertex
 10
0.0302781745930564
 20
0.1264260712497024
 30
0.0
 42
-0.0099262085559507
  0
VERTEX
  5
13A
330
130
100
AcDbEntity
  8
front
370
    -3
100
AcDbVertex
100
AcDb2dVertex
 10
0.0309973758910283
 20
0.126261582598746
 30
0.0
 42
-0.0158030431821287
  0
VERTEX
  5
13B
330
130
100
AcDbEntity
  8
front
370
    -3
100
AcDbVertex
100
AcDb2dVertex
 10
0.0317069506234089
 20
0.1260603821742259
 30
0.0
 42
-0.0149278701475354
  0
VERTEX
  5
13C
330
130
100
AcDbEntity
  8
front
370
    -3
100
AcDbVertex
100
AcDb2dVertex
 10
0.0322266287184662
 20
0.1258778643649348
 30
0.0
 42
-0.0290018373550417
  0
VERTEX
  5
13D
330
130
100
AcDbEntity
  8
front
370
    -3
100
AcDbVertex
100
AcDb2dVertex
 10
0.0327276713116894
 20
0.1256507409464916
 30
0.0
 42
-0.0144622544564929
  0
VERTEX
  5
13E
330
130
100
AcDbEntity
  8
front
370
    -3
100
AcDbVertex
100
AcDb2dVertex
 10
0.0329054208607566
 20
0.1255507295371028
 30
0.0
 42
-0.0217092124377703
  0
VERTEX
  5
13F
330
130
100
AcDbEntity
  8
front
370
    -3
100
AcDbVertex
100
AcDb2dVertex
 10
0.0330753885400594
 20
0.1254381925251844
 30
0.0
 42
-0.0210820872759837
  0
VERTEX
  5
140
330
130
100
AcDbEntity
  8
front
370
    -3
100
AcDbVertex
100
AcDb2dVertex
 10
0.0332016900587223
 20
0.1253380453661887
 30
0.0
 42
-0.032745796984646
  0
VERTEX
  5
141
330
130
100
AcDbEntity
  8
front
370
    -3
100
AcDbVertex
100
AcDb2dVertex
 10
0.0333163590525837
 20
0.1252250525234116
 30
0.0
 42
-0.0320978707273708
  0
VERTEX
  5
142
330
130
100
AcDbEntity
  8
front
370
    -3
100
AcDbVertex
100
AcDb2dVertex
 10
0.033394404882071
 20
0.1251251364780402
 30
0.0
 42
-0.047418930297594
  0
VERTEX
  5
143
330
130
100
AcDbEntity
  8
front
370
    -3
100
AcDbVertex
100
AcDb2dVertex
 10
0.0334555039947424
 20
0.1250143974878031
 30
0.0
 42
-0.0469911308327112
  0
VERTEX
  5
144
330
130
100
AcDbEntity
  8
front
370
    -3
100
AcDbVertex
100
AcDb2dVertex
 10
0.033488325089512
 20
0.1249138427716515
 30
0.0
 42
-0.055452927848286
  0
VERTEX
  5
145
330
130
100
AcDbEntity
  8
front
370
    -3
100
AcDbVertex
100
AcDb2dVertex
 10
0.0335
 20
0.1248088978185844
 30
0.0
  0
SEQEND
  5
146
330
130
100
AcDbEntity
  8
front
370
    -3
  0
POLYLINE
  5
147
330
1F
100
AcDbEntity
  8
front
370
    -3
100
AcDb2dPolyline
 66
     1
 10
0.0
 20
0.0
 30
0.0
  0
VERTEX
  5
148
330
147
100
AcDbEntity
  8
front
370
    -3
100
AcDbVertex
100
AcDb2dVertex
 10
0.0335
 20
0.1248088978185844
 30
0.0
  0
VERTEX
  5
149
330
147
100
AcDbEntity
  8
front
370
    -3
100
AcDbVertex
100
AcDb2dVertex
 10
0.0334999999999999
 20
0.126784154860209
 30
0.0
  0
SEQEND
  5
14A
330
147
100
AcDbEntity
  8
front
370
    -3
  0
POLYLINE
  5
14B
330
1F
100
AcDbEntity
  8
front
370
    -3
100
AcDb2dPolyline
 66
     1
 10
0.0
 20
0.0
 30
0.0
  0
VERTEX
  5
14C
330
14B
100
AcDbEntity
  8
front
370
    -3
100
AcDbVertex
100
AcDb2dVertex
 10
0.0413383438258581
 20
0.1403330809545974
 30
0.0
 42
0.2032718032822763
  0
VERTEX
  5
14D
330
14B
100
AcDbEntity
  8
front
370
    -3
100
AcDbVertex
100
AcDb2dVertex
 10
0.0411980809390034
 20
0.1406975205474543
 30
0.0
 42
0.2033137303177792
  0
VERTEX
  5
14E
330
14B
100
AcDbEntity
  8
front
370
    -3
100
AcDbVertex
100
AcDb2dVertex
 10
0.0408385958969617
 20
0.1408499999999996
 30
0.0
  0
SEQEND
  5
14F
330
14B
100
AcDbEntity
  8
front
370
    -3
  0
POLYLINE
  5
150
330
1F
100
AcDbEntity
  8
front
370
    -3
100
AcDb2dPolyline
 66
     1
 10
0.0
 20
0.0
 30
0.0
  0
VERTEX
  5
151
330
150
100
AcDbEntity
  8
front
370
    -3
100
AcDbVertex
100
AcDb2dVertex
 10
0.0122978724173184
 20
0.1724220389660386
 30
0.0
 42
-0.0186683528195853
  0
VERTEX
  5
152
330
150
100
AcDbEntity
  8
front
370
    -3
100
AcDbVertex
100
AcDb2dVertex
 10
0.0090879814505666
 20
0.1731129750703022
 30
0.0
 42
-0.0478368419743078
  0
VERTEX
  5
153
330
150
100
AcDbEntity
  8
front
370
    -3
100
AcDbVertex
100
AcDb2dVertex
 10
0.006009953242188
 20
0.1742189614460873
 30
0.0
 42
-0.01326551749687
  0
VERTEX
  5
154
330
150
100
AcDbEntity
  8
front
370
    -3
100
AcDbVertex
100
AcDb2dVertex
 10
0.0054938911765662
 20
0.1744792108841998
 30
0.0
 42
-0.0193995263729015
  0
VERTEX
  5
155
330
150
100
AcDbEntity
  8
front
370
    -3
100
AcDbVertex
100
AcDb2dVertex
 10
0.0049961176592428
 20
0.1747724748048634
 30
0.0
 42
-0.019452830202617
  0
VERTEX
  5
156
330
150
100
AcDbEntity
  8
front
370
    -3
100
AcDbVertex
100
AcDb2dVertex
 10
0.0046062159734472
 20
0.1750450420659477
 30
0.0
 42
-0.0305723400352745
  0
VERTEX
  5
157
330
150
100
AcDbEntity
  8
front
370
    -3
100
AcDbVertex
100
AcDb2dVertex
 10
0.0042458827767481
 20
0.1753548375223992
 30
0.0
 42
-0.0311275072630033
  0
VERTEX
  5
158
330
150
100
AcDbEntity
  8
front
370
    -3
100
AcDbVertex
100
AcDb2dVertex
 10
0.0039879305627158
 20
0.1756388729833753
 30
0.0
 42
-0.0493611088050855
  0
VERTEX
  5
159
330
150
100
AcDbEntity
  8
front
370
    -3
100
AcDbVertex
100
AcDb2dVertex
 10
0.0037794201027618
 20
0.175959617730322
 30
0.0
 42
-0.0520503131632004
  0
VERTEX
  5
15A
330
150
100
AcDbEntity
  8
front
370
    -3
100
AcDbVertex
100
AcDb2dVertex
 10
0.0036612531782884
 20
0.1762608926125389
 30
0.0
 42
-0.0660146336113016
  0
VERTEX
  5
15B
330
150
100
AcDbEntity
  8
front
370
    -3
100
AcDbVertex
100
AcDb2dVertex
 10
0.0036169011453415
 20
0.1765803835602587
 30
0.0
  0
SEQEND
  5
15C
330
150
100
AcDbEntity
  8
front
370
    -3
  0
POLYLINE
  5
15D
330
1F
100
AcDbEntity
  8
front
370
    -3
100
AcDb2dPolyline
 66
     1
 10
0.0
 20
0.0
 30
0.0
  0
VERTEX
  5
15E
330
15D
100
AcDbEntity
  8
front
370
    -3
100
AcDbVertex
100
AcDb2dVertex
 10
0.0334999999999999
 20
0.1287404500616766
 30
0.0
 42
-0.0133063396549254
  0
VERTEX
  5
15F
330
15D
100
AcDbEntity
  8
front
370
    -3
100
AcDbVertex
100
AcDb2dVertex
 10
0.033720535740134
 20
0.1286279836731442
 30
0.0
 42
-0.0199222914767532
  0
VERTEX
  5
160
330
15D
100
AcDbEntity
  8
front
370
    -3
100
AcDbVertex
100
AcDb2dVertex
 10
0.03393302336733
 20
0.1285011773557841
 30
0.0
 42
-0.019869692029289
  0
VERTEX
  5
161
330
15D
100
AcDbEntity
  8
front
370
    -3
100
AcDbVertex
100
AcDb2dVertex
 10
0.034096685736542
 20
0.1283849256284111
 30
0.0
 42
-0.0316610202491428
  0
VERTEX
  5
162
330
15D
100
AcDbEntity
  8
front
370
    -3
100
AcDbVertex
100
AcDb2dVertex
 10
0.0342473401244707
 20
0.1282526181748503
 30
0.0
 42
-0.0318445789678171
  0
VERTEX
  5
163
330
15D
100
AcDbEntity
  8
front
370
    -3
100
AcDbVertex
100
AcDb2dVertex
 10
0.0343527295629774
 20
0.1281332245997219
 30
0.0
 42
-0.0500513114291726
  0
VERTEX
  5
164
330
15D
100
AcDbEntity
  8
front
370
    -3
100
AcDbVertex
100
AcDb2dVertex
 10
0.0344370025963699
 20
0.1279986549084964
 30
0.0
 42
-0.0514711636199123
  0
VERTEX
  5
165
330
15D
100
AcDbEntity
  8
front
370
    -3
100
AcDbVertex
100
AcDb2dVertex
 10
0.0344832740779961
 20
0.127874452598883
 30
0.0
 42
-0.0635274549836809
  0
VERTEX
  5
166
330
15D
100
AcDbEntity
  8
front
370
    -3
100
AcDbVertex
100
AcDb2dVertex
 10
0.0344999999999999
 20
0.1277433406207875
 30
0.0
  0
SEQEND
  5
167
330
15D
100
AcDbEntity
  8
front
370
    -3
  0
POLYLINE
  5
168
330
1F
100
AcDbEntity
  8
front
370
    -3
100
AcDb2dPolyline
 66
     1
 10
0.0
 20
0.0
 30
0.0
  0
VERTEX
  5
169
330
168
100
AcDbEntity
  8
front
370
    -3
100
AcDbVertex
100
AcDb2dVertex
 10
0.0334999999999999
 20
0.126784154860209
 30
0.0
  0
VERTEX
  5
16A
330
168
100
AcDbEntity
  8
front
370
    -3
100
AcDbVertex
100
AcDb2dVertex
 10
0.0334999999999999
 20
0.1287404500616766
 30
0.0
  0
SEQEND
  5
16B
330
168
100
AcDbEntity
  8
front
370
    -3
  0
POLYLINE
  5
16C
330
1F
100
AcDbEntity
  8
front
370
    -3
100
AcDb2dPolyline
 66
     1
 10
0.0
 20
0.0
 30
0.0
  0
VERTEX
  5
16D
330
16C
100
AcDbEntity
  8
front
370
    -3
100
AcDbVertex
100
AcDb2dVertex
 10
0.0344999999999999
 20
0.1291836657386179
 30
0.0
  0
VERTEX
  5
16E
330
16C
100
AcDbEntity
  8
front
370
    -3
100
AcDbVertex
100
AcDb2dVertex
 10
0.0344999999999999
 20
0.1277433406207875
 30
0.0
  0
SEQEND
  5
16F
330
16C
100
AcDbEntity
  8
front
370
    -3
  0
POLYLINE
  5
170
330
1F
100
AcDbEntity
  8
front
370
    -3
100
AcDb2dPolyline
 66
     1
 10
0.0
 20
0.0
 30
0.0
  0
VERTEX
  5
171
330
170
100
AcDbEntity
  8
front
370
    -3
100
AcDbVertex
100
AcDb2dVertex
 10
0.0104999999999999
 20
0.1277433406207875
 30
0.0
  0
VERTEX
  5
172
330
170
100
AcDbEntity
  8
front
370
    -3
100
AcDbVertex
100
AcDb2dVertex
 10
0.0104999999999999
 20
0.1291863613184797
 30
0.0
  0
SEQEND
  5
173
330
170
100
AcDbEntity
  8
front
370
    -3
  0
POLYLINE
  5
174
330
1F
100
AcDbEntity
  8
front
370
    -3
100
AcDb2dPolyline
 66
     1
 10
0.0
 20
0.0
 30
0.0
  0
VERTEX
  5
175
330
174
100
AcDbEntity
  8
front
370
    -3
100
AcDbVertex
100
AcDb2dVertex
 10
0.0104999999999999
 20
0.1277433406207875
 30
0.0
 42
-0.0635274549836938
  0
VERTEX
  5
176
330
174
100
AcDbEntity
  8
front
370
    -3
100
AcDbVertex
100
AcDb2dVertex
 10
0.0105167259220038
 20
0.127874452598883
 30
0.0
 42
-0.0514711636197986
  0
VERTEX
  5
177
330
174
100
AcDbEntity
  8
front
370
    -3
100
AcDbVertex
100
AcDb2dVertex
 10
0.0105629974036299
 20
0.1279986549084964
 30
0.0
 42
-0.0500513114291274
  0
VERTEX
  5
178
330
174
100
AcDbEntity
  8
front
370
    -3
100
AcDbVertex
100
AcDb2dVertex
 10
0.0106472704370225
 20
0.1281332245997219
 30
0.0
 42
-0.0318445789677916
  0
VERTEX
  5
179
330
174
100
AcDbEntity
  8
front
370
    -3
100
AcDbVertex
100
AcDb2dVertex
 10
0.0107526598755292
 20
0.1282526181748503
 30
0.0
 42
-0.0316610202491314
  0
VERTEX
  5
17A
330
174
100
AcDbEntity
  8
front
370
    -3
100
AcDbVertex
100
AcDb2dVertex
 10
0.0109033142634578
 20
0.1283849256284111
 30
0.0
 42
-0.0198696920292661
  0
VERTEX
  5
17B
330
174
100
AcDbEntity
  8
front
370
    -3
100
AcDbVertex
100
AcDb2dVertex
 10
0.0110669766326699
 20
0.1285011773557841
 30
0.0
 42
-0.0199222914767193
  0
VERTEX
  5
17C
330
174
100
AcDbEntity
  8
front
370
    -3
100
AcDbVertex
100
AcDb2dVertex
 10
0.0112794642598659
 20
0.1286279836731442
 30
0.0
 42
-0.0133063396549071
  0
VERTEX
  5
17D
330
174
100
AcDbEntity
  8
front
370
    -3
100
AcDbVertex
100
AcDb2dVertex
 10
0.0114999999999999
 20
0.1287404500616766
 30
0.0
  0
SEQEND
  5
17E
330
174
100
AcDbEntity
  8
front
370
    -3
  0
POLYLINE
  5
17F
330
1F
100
AcDbEntity
  8
front
370
    -3
100
AcDb2dPolyline
 66
     1
 10
0.0
 20
0.0
 30
0.0
  0
VERTEX
  5
180
330
17F
100
AcDbEntity
  8
front
370
    -3
100
AcDbVertex
100
AcDb2dVertex
 10
0.0345052689234717
 20
0.1288117836751629
 30
0.0
 42
0.01807210889751
  0
VERTEX
  5
181
330
17F
100
AcDbEntity
  8
front
370
    -3
100
AcDbVertex
100
AcDb2dVertex
 10
0.0345389657662802
 20
0.1288591172974911
 30
0.0
 42
0.0298923132030649
  0
VERTEX
  5
182
330
17F
100
AcDbEntity
  8
front
370
    -3
100
AcDbVertex
100
AcDb2dVertex
 10
0.034567942203272
 20
0.1289094031585397
 30
0.0
 42
0.030298791787341
  0
VERTEX
  5
183
330
17F
100
AcDbEntity
  8
front
370
    -3
100
AcDbVertex
100
AcDb2dVertex
 10
0.0345858782322386
 20
0.1289515417851188
 30
0.0
 42
0.0483533605269414
  0
VERTEX
  5
184
330
17F
100
AcDbEntity
  8
front
370
    -3
100
AcDbVertex
100
AcDb2dVertex
 10
0.0345969641615039
 20
0.1289958428867295
 30
0.0
 42
0.112840561485573
  0
VERTEX
  5
185
330
17F
100
AcDbEntity
  8
front
370
    -3
100
AcDbVertex
100
AcDb2dVertex
 10
0.0345911632627678
 20
0.1290718658569385
 30
0.0
 42
0.1086998850709079
  0
VERTEX
  5
186
330
17F
100
AcDbEntity
  8
front
370
    -3
100
AcDbVertex
100
AcDb2dVertex
 10
0.0345533795886608
 20
0.1291382504110339
 30
0.0
 42
0.0458551950436775
  0
VERTEX
  5
187
330
17F
100
AcDbEntity
  8
front
370
    -3
100
AcDbVertex
100
AcDb2dVertex
 10
0.034519230759916
 20
0.1291697562244301
 30
0.0
 42
0.0280599796171837
  0
VERTEX
  5
188
330
17F
100
AcDbEntity
  8
front
370
    -3
100
AcDbVertex
100
AcDb2dVertex
 10
0.0344807146955818
 20
0.1291959604131067
 30
0.0
 42
0.0274461271120885
  0
VERTEX
  5
189
330
17F
100
AcDbEntity
  8
front
370
    -3
100
AcDbVertex
100
AcDb2dVertex
 10
0.0344287995278661
 20
0.1292234136278594
 30
0.0
 42
0.0164522578336416
  0
VERTEX
  5
18A
330
17F
100
AcDbEntity
  8
front
370
    -3
100
AcDbVertex
100
AcDb2dVertex
 10
0.0343746252280513
 20
0.1292462318919983
 30
0.0
 42
0.0306186141034679
  0
VERTEX
  5
18B
330
17F
100
AcDbEntity
  8
front
370
    -3
100
AcDbVertex
100
AcDb2dVertex
 10
0.0342212551997157
 20
0.1292944369092875
 30
0.0
 42
0.0120159218125774
  0
VERTEX
  5
18C
330
17F
100
AcDbEntity
  8
front
370
    -3
100
AcDbVertex
100
AcDb2dVertex
 10
0.0340640885819736
 20
0.129329463608943
 30
0.0
 42
0.0202889957420177
  0
VERTEX
  5
18D
330
17F
100
AcDbEntity
  8
front
370
    -3
100
AcDbVertex
100
AcDb2dVertex
 10
0.0335653929539352
 20
0.129407221377056
 30
0.0
 42
0.0034562209769023
  0
VERTEX
  5
18E
330
17F
100
AcDbEntity
  8
front
370
    -3
100
AcDbVertex
100
AcDb2dVertex
 10
0.033063167207756
 20
0.12946126309696
 30
0.0
 42
0.0048238117507698
  0
VERTEX
  5
18F
330
17F
100
AcDbEntity
  8
front
370
    -3
100
AcDbVertex
100
AcDb2dVertex
 10
0.0323282704812932
 20
0.1295280512496295
 30
0.0
 42
0.0023717720849943
  0
VERTEX
  5
190
330
17F
100
AcDbEntity
  8
front
370
    -3
100
AcDbVertex
100
AcDb2dVertex
 10
0.0315924627680348
 20
0.1295842588743643
 30
0.0
 42
0.0090563294828662
  0
VERTEX
  5
191
330
17F
100
AcDbEntity
  8
front
370
    -3
100
AcDbVertex
100
AcDb2dVertex
 10
0.0270564046283935
 20
0.1298266477744364
 30
0.0
 42
0.0088462743924305
  0
VERTEX
  5
192
330
17F
100
AcDbEntity
  8
front
370
    -3
100
AcDbVertex
100
AcDb2dVertex
 10
0.022514542806882
 20
0.1299065064604771
 30
0.0
  0
SEQEND
  5
193
330
17F
100
AcDbEntity
  8
front
370
    -3
  0
POLYLINE
  5
194
330
1F
100
AcDbEntity
  8
front
370
    -3
100
AcDb2dPolyline
 66
     1
 10
0.0
 20
0.0
 30
0.0
  0
VERTEX
  5
195
330
194
100
AcDbEntity
  8
front
370
    -3
100
AcDbVertex
100
AcDb2dVertex
 10
0.0225
 20
0.1299065038966211
 30
0.0
 42
0.0087821984746742
  0
VERTEX
  5
196
330
194
100
AcDbEntity
  8
front
370
    -3
100
AcDbVertex
100
AcDb2dVertex
 10
0.0179468516533199
 20
0.1298266136884274
 30
0.0
 42
0.0091329819025348
  0
VERTEX
  5
197
330
194
100
AcDbEntity
  8
front
370
    -3
100
AcDbVertex
100
AcDb2dVertex
 10
0.0133995444970206
 20
0.1295836761299938
 30
0.0
 42
0.0024017634833057
  0
VERTEX
  5
198
330
194
100
AcDbEntity
  8
front
370
    -3
100
AcDbVertex
100
AcDb2dVertex
 10
0.0126631606560906
 20
0.129527275042701
 30
0.0
 42
0.0048106509758758
  0
VERTEX
  5
199
330
194
100
AcDbEntity
  8
front
370
    -3
100
AcDbVertex
100
AcDb2dVertex
 10
0.0119276925241842
 20
0.1294602603706299
 30
0.0
 42
0.0033688134155093
  0
VERTEX
  5
19A
330
194
100
AcDbEntity
  8
front
370
    -3
100
AcDbVertex
100
AcDb2dVertex
 10
0.0114262650659498
 20
0.1294062871509297
 30
0.0
 42
0.0205763847174559
  0
VERTEX
  5
19B
330
194
100
AcDbEntity
  8
front
370
    -3
100
AcDbVertex
100
AcDb2dVertex
 10
0.0109284063071176
 20
0.1293284385169255
 30
0.0
 42
0.0122005333087178
  0
VERTEX
  5
19C
330
194
100
AcDbEntity
  8
front
370
    -3
100
AcDbVertex
100
AcDb2dVertex
 10
0.010772163545805
 20
0.1292933916890427
 30
0.0
 42
0.0314191105713535
  0
VERTEX
  5
19D
330
194
100
AcDbEntity
  8
front
370
    -3
100
AcDbVertex
100
AcDb2dVertex
 10
0.0106198231179898
 20
0.1292449495428261
 30
0.0
 42
0.0168986710194204
  0
VERTEX
  5
19E
330
194
100
AcDbEntity
  8
front
370
    -3
100
AcDbVertex
100
AcDb2dVertex
 10
0.0105662531536537
 20
0.1292220166638355
 30
0.0
 42
0.0283045167044212
  0
VERTEX
  5
19F
330
194
100
AcDbEntity
  8
front
370
    -3
100
AcDbVertex
100
AcDb2dVertex
 10
0.0105150247624419
 20
0.1291943704303809
 30
0.0
 42
0.0289809756007208
  0
VERTEX
  5
1A0
330
194
100
AcDbEntity
  8
front
370
    -3
100
AcDbVertex
100
AcDb2dVertex
 10
0.0104771801328879
 20
0.1291679530746872
 30
0.0
 42
0.0471942563459448
  0
VERTEX
  5
1A1
330
194
100
AcDbEntity
  8
front
370
    -3
100
AcDbVertex
100
AcDb2dVertex
 10
0.0104438728030817
 20
0.1291361894793213
 30
0.0
 42
0.111802817053527
  0
VERTEX
  5
1A2
330
194
100
AcDbEntity
  8
front
370
    -3
100
AcDbVertex
100
AcDb2dVertex
 10
0.0104077211951783
 20
0.1290687565446843
 30
0.0
 42
0.1105393741113711
  0
VERTEX
  5
1A3
330
194
100
AcDbEntity
  8
front
370
    -3
100
AcDbVertex
100
AcDb2dVertex
 10
0.0104039521800654
 20
0.1289922940260386
 30
0.0
 42
0.0472518599481071
  0
VERTEX
  5
1A4
330
194
100
AcDbEntity
  8
front
370
    -3
100
AcDbVertex
100
AcDb2dVertex
 10
0.0104161382961041
 20
0.1289474551042742
 30
0.0
 42
0.0293627066573543
  0
VERTEX
  5
1A5
330
194
100
AcDbEntity
  8
front
370
    -3
100
AcDbVertex
100
AcDb2dVertex
 10
0.0104350735415349
 20
0.1289048833325117
 30
0.0
 42
0.0290113997127142
  0
VERTEX
  5
1A6
330
194
100
AcDbEntity
  8
front
370
    -3
100
AcDbVertex
100
AcDb2dVertex
 10
0.0104652197518366
 20
0.1288540426617013
 30
0.0
 42
0.0175599457890964
  0
VERTEX
  5
1A7
330
194
100
AcDbEntity
  8
front
370
    -3
100
AcDbVertex
100
AcDb2dVertex
 10
0.0105000000087337
 20
0.128806174487464
 30
0.0
  0
SEQEND
  5
1A8
330
194
100
AcDbEntity
  8
front
370
    -3
  0
POLYLINE
  5
1A9
330
1F
100
AcDbEntity
  8
front
370
    -3
100
AcDb2dPolyline
 66
     1
 10
0.0
 20
0.0
 30
0.0
  0
VERTEX
  5
1AA
330
1A9
100
AcDbEntity
  8
front
370
    -3
100
AcDbVertex
100
AcDb2dVertex
 10
0.0039338056232039
 20
0.1407946346887142
 30
0.0
 42
0.1426912945059592
  0
VERTEX
  5
1AB
330
1A9
100
AcDbEntity
  8
front
370
    -3
100
AcDbVertex
100
AcDb2dVertex
 10
0.0037305491363565
 20
0.1406034863762383
 30
0.0
 42
0.1425286237826034
  0
VERTEX
  5
1AC
330
1A9
100
AcDbEntity
  8
front
370
    -3
100
AcDbVertex
100
AcDb2dVertex
 10
0.0036616561741432
 20
0.1403330809545976
 30
0.0
  0
SEQEND
  5
1AD
330
1A9
100
AcDbEntity
  8
front
370
    -3
  0
POLYLINE
  5
1AE
330
1F
100
AcDbEntity
  8
front
370
    -3
100
AcDb2dPolyline
 66
     1
 10
0.0
 20
0.0
 30
0.0
  0
VERTEX
  5
1AF
330
1AE
100
AcDbEntity
  8
front
370
    -3
100
AcDbVertex
100
AcDb2dVertex
 10
0.0037895932815804
 20
0.176996898780721
 30
0.0
 42
0.0796842888092328
  0
VERTEX
  5
1B0
330
1AE
100
AcDbEntity
  8
front
370
    -3
100
AcDbVertex
100
AcDb2dVertex
 10
0.0037077848661729
 20
0.1769171360093462
 30
0.0
 42
0.0695932731260617
  0
VERTEX
  5
1B1
330
1AE
100
AcDbEntity
  8
front
370
    -3
100
AcDbVertex
100
AcDb2dVertex
 10
0.0036528353682351
 20
0.1768165667810256
 30
0.0
 42
0.0591132848448477
  0
VERTEX
  5
1B2
330
1AE
100
AcDbEntity
  8
front
370
    -3
100
AcDbVertex
100
AcDb2dVertex
 10
0.0036240406609509
 20
0.1767004174915001
 30
0.0
 42
0.0327684455562237
  0
VERTEX
  5
1B3
330
1AE
100
AcDbEntity
  8
front
370
    -3
100
AcDbVertex
100
AcDb2dVertex
 10
0.0036169011453415
 20
0.1765803835602587
 30
0.0
  0
SEQEND
  5
1B4
330
1AE
100
AcDbEntity
  8
front
370
    -3
  0
POLYLINE
  5
1B5
330
1F
100
AcDbEntity
  8
front
370
    -3
100
AcDb2dPolyline
 66
     1
 10
0.0
 20
0.0
 30
0.0
  0
VERTEX
  5
1B6
330
1B5
100
AcDbEntity
  8
front
370
    -3
100
AcDbVertex
100
AcDb2dVertex
 10
0.0413111784585633
 20
0.1769963709354362
 30
0.0
 42
-0.0795894028074454
  0
VERTEX
  5
1B7
330
1B5
100
AcDbEntity
  8
front
370
    -3
100
AcDbVertex
100
AcDb2dVertex
 10
0.0413926528495401
 20
0.1769165934829811
 30
0.0
 42
-0.0693710153024778
  0
VERTEX
  5
1B8
330
1B5
100
AcDbEntity
  8
front
370
    -3
100
AcDbVertex
100
AcDb2dVertex
 10
0.0414473428735335
 20
0.1768161398621836
 30
0.0
 42
-0.0589289971442019
  0
VERTEX
  5
1B9
330
1B5
100
AcDbEntity
  8
front
370
    -3
100
AcDbVertex
100
AcDb2dVertex
 10
0.0414760026854204
 20
0.1767001889797433
 30
0.0
 42
-0.0327275450286295
  0
VERTEX
  5
1BA
330
1B5
100
AcDbEntity
  8
front
370
    -3
100
AcDbVertex
100
AcDb2dVertex
 10
0.0414830988545889
 20
0.1765803835602587
 30
0.0
  0
SEQEND
  5
1BB
330
1B5
100
AcDbEntity
  8
front
370
    -3
  0
POLYLINE
  5
1BC
330
1F
100
AcDbEntity
  8
front
370
    -3
100
AcDb2dPolyline
 66
     1
 10
0.0
 20
0.0
 30
0.0
  0
VERTEX
  5
1BD
330
1BC
100
AcDbEntity
  8
front
370
    -3
100
AcDbVertex
100
AcDb2dVertex
 10
0.0114999999999999
 20
0.1287404500616766
 30
0.0
  0
VERTEX
  5
1BE
330
1BC
100
AcDbEntity
  8
front
370
    -3
100
AcDbVertex
100
AcDb2dVertex
 10
0.0114999999999999
 20
0.126784154860209
 30
0.0
  0
SEQEND
  5
1BF
330
1BC
100
AcDbEntity
  8
front
370
    -3
  0
POLYLINE
  5
1C0
330
1F
100
AcDbEntity
  8
front
370
    -3
100
AcDb2dPolyline
 66
     1
 10
0.0
 20
0.0
 30
0.0
  0
VERTEX
  5
1C1
330
1C0
100
AcDbEntity
  8
front
370
    -3
100
AcDbVertex
100
AcDb2dVertex
 10
0.0114999999999998
 20
0.1248088978185862
 30
0.0
  0
VERTEX
  5
1C2
330
1C0
100
AcDbEntity
  8
front
370
    -3
100
AcDbVertex
100
AcDb2dVertex
 10
0.0114999999999999
 20
0.124563027224791
 30
0.0
  0
SEQEND
  5
1C3
330
1C0
100
AcDbEntity
  8
front
370
    -3
  0
POLYLINE
  5
1C4
330
1F
100
AcDbEntity
  8
front
370
    -3
100
AcDb2dPolyline
 66
     1
 10
0.0
 20
0.0
 30
0.0
  0
VERTEX
  5
1C5
330
1C4
100
AcDbEntity
  8
front
370
    -3
100
AcDbVertex
100
AcDb2dVertex
 10
0.0114999999999999
 20
0.126784154860209
 30
0.0
  0
VERTEX
  5
1C6
330
1C4
100
AcDbEntity
  8
front
370
    -3
100
AcDbVertex
100
AcDb2dVertex
 10
0.0114999999999998
 20
0.1248088978185862
 30
0.0
  0
SEQEND
  5
1C7
330
1C4
100
AcDbEntity
  8
front
370
    -3
  0
POLYLINE
  5
1C8
330
1F
100
AcDbEntity
  8
front
370
    -3
100
AcDb2dPolyline
 66
     1
 10
0.0
 20
0.0
 30
0.0
  0
VERTEX
  5
1C9
330
1C8
100
AcDbEntity
  8
front
370
    -3
100
AcDbVertex
100
AcDb2dVertex
 10
0.0335
 20
0.1248088978185844
 30
0.0
  0
VERTEX
  5
1CA
330
1C8
100
AcDbEntity
  8
front
370
    -3
100
AcDbVertex
100
AcDb2dVertex
 10
0.0334999999999999
 20
0.1245630272248611
 30
0.0
  0
SEQEND
  5
1CB
330
1C8
100
AcDbEntity
  8
front
370
    -3
  0
POLYLINE
  5
1CC
330
1F
100
AcDbEntity
  8
front
370
    -3
100
AcDb2dPolyline
 66
     1
 10
0.0
 20
0.0
 30
0.0
  0
VERTEX
  5
1CD
330
1CC
100
AcDbEntity
  8
front
370
    -3
100
AcDbVertex
100
AcDb2dVertex
 10
0.0326847288208117
 20
0.1239448427747104
 30
0.0
 42
-0.0392999915800246
  0
VERTEX
  5
1CE
330
1CC
100
AcDbEntity
  8
front
370
    -3
100
AcDbVertex
100
AcDb2dVertex
 10
0.0318770831035058
 20
0.1236103236418951
 30
0.0
 42
-0.0159365395955623
  0
VERTEX
  5
1CF
330
1CC
100
AcDbEntity
  8
front
370
    -3
100
AcDbVertex
100
AcDb2dVertex
 10
0.03103532120458
 20
0.1233662200055419
 30
0.0
 42
-0.0178907736441172
  0
VERTEX
  5
1D0
330
1CC
100
AcDbEntity
  8
front
370
    -3
100
AcDbVertex
100
AcDb2dVertex
 10
0.0298053811653127
 20
0.1230981453110715
 30
0.0
 42
-0.0105946912464186
  0
VERTEX
  5
1D1
330
1CC
100
AcDbEntity
  8
front
370
    -3
100
AcDbVertex
100
AcDb2dVertex
 10
0.0285616564279861
 20
0.1229004505828798
 30
0.0
 42
-0.0199796079174358
  0
VERTEX
  5
1D2
330
1CC
100
AcDbEntity
  8
front
370
    -3
100
AcDbVertex
100
AcDb2dVertex
 10
0.025537892686286
 20
0.1226077711808091
 30
0.0
 42
-0.0141355876590786
  0
VERTEX
  5
1D3
330
1CC
100
AcDbEntity
  8
front
370
    -3
100
AcDbVertex
100
AcDb2dVertex
 10
0.0224999999999998
 20
0.1225218692195909
 30
0.0
 42
-0.0158673136753072
  0
VERTEX
  5
1D4
330
1CC
100
AcDbEntity
  8
front
370
    -3
100
AcDbVertex
100
AcDb2dVertex
 10
0.0190369875824021
 20
0.1226317943041931
 30
0.0
 42
-0.0256409964975027
  0
VERTEX
  5
1D5
330
1CC
100
AcDbEntity
  8
front
370
    -3
100
AcDbVertex
100
AcDb2dVertex
 10
0.0155978026673409
 20
0.1230281287616042
 30
0.0
 42
-0.0131721924706379
  0
VERTEX
  5
1D6
330
1CC
100
AcDbEntity
  8
front
370
    -3
100
AcDbVertex
100
AcDb2dVertex
 10
0.0143276934439443
 20
0.1232754902893696
 30
0.0
 42
-0.0282239497885043
  0
VERTEX
  5
1D7
330
1CC
100
AcDbEntity
  8
front
370
    -3
100
AcDbVertex
100
AcDb2dVertex
 10
0.0130839360903229
 20
0.123626581331477
 30
0.0
 42
-0.0139619446403486
  0
VERTEX
  5
1D8
330
1CC
100
AcDbEntity
  8
front
370
    -3
100
AcDbVertex
100
AcDb2dVertex
 10
0.0126677209061637
 20
0.1237829984295665
 30
0.0
 42
-0.0245890512203873
  0
VERTEX
  5
1D9
330
1CC
100
AcDbEntity
  8
front
370
    -3
100
AcDbVertex
100
AcDb2dVertex
 10
0.0122651181868426
 20
0.1239708513564895
 30
0.0
 42
-0.0228540341158605
  0
VERTEX
  5
1DA
330
1CC
100
AcDbEntity
  8
front
370
    -3
100
AcDbVertex
100
AcDb2dVertex
 10
0.0119956112093505
 20
0.1241292809917164
 30
0.0
 42
-0.0464490001160742
  0
VERTEX
  5
1DB
330
1CC
100
AcDbEntity
  8
front
370
    -3
100
AcDbVertex
100
AcDb2dVertex
 10
0.0117513635897842
 20
0.1243227748831427
 30
0.0
  0
SEQEND
  5
1DC
330
1CC
100
AcDbEntity
  8
front
370
    -3
  0
POLYLINE
  5
1DD
330
1F
100
AcDbEntity
  8
front
100
AcDb2dPolyline
 66
     1
 10
0.0
 20
0.0
 30
0.0
  0
VERTEX
  5
1DE
330
1DD
100
AcDbEntity
  8
front
100
AcDbVertex
100
AcDb2dVertex
 10
0.0034999999999999
 20
0.0028499999999995
 30
0.0
  0
VERTEX
  5
1DF
330
1DD
100
AcDbEntity
  8
front
100
AcDbVertex
100
AcDb2dVertex
 10
0.0414999999999999
 20
0.0028499999999995
 30
0.0
  0
SEQEND
  5
1E0
330
1DD
100
AcDbEntity
  8
front
  0
POLYLINE
  5
1E1
330
1F
100
AcDbEntity
  8
front
100
AcDb2dPolyline
 66
     1
 10
0.0
 20
0.0
 30
0.0
  0
VERTEX
  5
1E2
330
1E1
100
AcDbEntity
  8
front
100
AcDbVertex
100
AcDb2dVertex
 10
0.0406400799271915
 20
0.1408499999999995
 30
0.0
  0
VERTEX
  5
1E3
330
1E1
100
AcDbEntity
  8
front
100
AcDbVertex
100
AcDb2dVertex
 10
0.0043599200728085
 20
0.1408499999999996
 30
0.0
  0
SEQEND
  5
1E4
330
1E1
100
AcDbEntity
  8
front
  0
POLYLINE
  5
1E5
330
1F
100
AcDbEntity
  8
front
100
AcDb2dPolyline
 66
     1
 10
0.0
 20
0.0
 30
0.0
  0
VERTEX
  5
1E6
330
1E5
100
AcDbEntity
  8
front
100
AcDbVertex
100
AcDb2dVertex
 10
0.0046939235933494
 20
0.1428507677425983
 30
0.0
  0
VERTEX
  5
1E7
330
1E5
100
AcDbEntity
  8
front
100
AcDbVertex
100
AcDb2dVertex
 10
0.0403062327477223
 20
0.1428500718573196
 30
0.0
  0
SEQEND
  5
1E8
330
1E5
100
AcDbEntity
  8
front
  0
POLYLINE
  5
1E9
330
1F
100
AcDbEntity
  8
front
370
    -3
100
AcDb2dPolyline
 66
     1
 10
0.0
 20
0.0
 30
0.0
  0
VERTEX
  5
1EA
330
1E9
100
AcDbEntity
  8
front
370
    -3
100
AcDbVertex
100
AcDb2dVertex
 10
0.0413383438258581
 20
0.1403330809545974
 30
0.0
 42
0.0213473494431486
  0
VERTEX
  5
1EB
330
1E9
100
AcDbEntity
  8
front
370
    -3
100
AcDbVertex
100
AcDb2dVertex
 10
0.0413572290336492
 20
0.1403338550570559
 30
0.0
 42
0.0456135562262669
  0
VERTEX
  5
1EC
330
1E9
100
AcDbEntity
  8
front
370
    -3
100
AcDbVertex
100
AcDb2dVertex
 10
0.0413757816204095
 20
0.1403371318530472
 30
0.0
 42
0.0281775818322183
  0
VERTEX
  5
1ED
330
1E9
100
AcDbEntity
  8
front
370
    -3
100
AcDbVertex
100
AcDb2dVertex
 10
0.0413874026247506
 20
0.1403410129175468
 30
0.0
  0
VERTEX
  5
1EE
330
1E9
100
AcDbEntity
  8
front
370
    -3
100
AcDbVertex
100
AcDb2dVertex
 10
0.0413881297928132
 20
0.1403413128944488
 30
0.0
  0
VERTEX
  5
1EF
330
1E9
100
AcDbEntity
  8
front
370
    -3
100
AcDbVertex
100
AcDb2dVertex
 10
0.0413888917721181
 20
0.1403416480651526
 30
0.0
  0
VERTEX
  5
1F0
330
1E9
100
AcDbEntity
  8
front
370
    -3
100
AcDbVertex
100
AcDb2dVertex
 10
0.0413896884603383
 20
0.1403420184093322
 30
0.0
  0
VERTEX
  5
1F1
330
1E9
100
AcDbEntity
  8
front
370
    -3
100
AcDbVertex
100
AcDb2dVertex
 10
0.041390519741727
 20
0.1403424238931896
 30
0.0
  0
VERTEX
  5
1F2
330
1E9
100
AcDbEntity
  8
front
370
    -3
100
AcDbVertex
100
AcDb2dVertex
 10
0.0413913854871677
 20
0.1403428644694525
 30
0.0
  0
VERTEX
  5
1F3
330
1E9
100
AcDbEntity
  8
front
370
    -3
100
AcDbVertex
100
AcDb2dVertex
 10
0.041392285554237
 20
0.1403433400773855
 30
0.0
  0
VERTEX
  5
1F4
330
1E9
100
AcDbEntity
  8
front
370
    -3
100
AcDbVertex
100
AcDb2dVertex
 10
0.0413932197872811
 20
0.1403438506428131
 30
0.0
  0
VERTEX
  5
1F5
330
1E9
100
AcDbEntity
  8
front
370
    -3
100
AcDbVertex
100
AcDb2dVertex
 10
0.0413941880175041
 20
0.1403443960781571
 30
0.0
  0
VERTEX
  5
1F6
330
1E9
100
AcDbEntity
  8
front
370
    -3
100
AcDbVertex
100
AcDb2dVertex
 10
0.0413951900630693
 20
0.1403449762824852
 30
0.0
  0
VERTEX
  5
1F7
330
1E9
100
AcDbEntity
  8
front
370
    -3
100
AcDbVertex
100
AcDb2dVertex
 10
0.041396225729213
 20
0.1403455911415738
 30
0.0
  0
VERTEX
  5
1F8
330
1E9
100
AcDbEntity
  8
front
370
    -3
100
AcDbVertex
100
AcDb2dVertex
 10
0.0413972948083706
 20
0.1403462405279824
 30
0.0
  0
VERTEX
  5
1F9
330
1E9
100
AcDbEntity
  8
front
370
    -3
100
AcDbVertex
100
AcDb2dVertex
 10
0.041398397080315
 20
0.1403469243011417
 30
0.0
  0
VERTEX
  5
1FA
330
1E9
100
AcDbEntity
  8
front
370
    -3
100
AcDbVertex
100
AcDb2dVertex
 10
0.0414007002592564
 20
0.1403483943803993
 30
0.0
  0
VERTEX
  5
1FB
330
1E9
100
AcDbEntity
  8
front
370
    -3
100
AcDbVertex
100
AcDb2dVertex
 10
0.0414031332569732
 20
0.1403499999963115
 30
0.0
  0
SEQEND
  5
1FC
330
1E9
100
AcDbEntity
  8
front
370
    -3
  0
POLYLINE
  5
1FD
330
1F
100
AcDbEntity
  8
front
370
    -3
100
AcDb2dPolyline
 66
     1
 10
0.0
 20
0.0
 30
0.0
 70
     1
  0
VERTEX
  5
1FE
330
1FD
100
AcDbEntity
  8
front
370
    -3
100
AcDbVertex
100
AcDb2dVertex
 10
0.0035001869458758
 20
0.1403499999999995
 30
0.0
 42
-0.1989101847148016
  0
VERTEX
  5
1FF
330
1FD
100
AcDbEntity
  8
front
370
    -3
100
AcDbVertex
100
AcDb2dVertex
 10
0.0036466316049104
 20
0.1407035528811508
 30
0.0
 42
-0.1989145500464998
  0
VERTEX
  5
200
330
1FD
100
AcDbEntity
  8
front
370
    -3
100
AcDbVertex
100
AcDb2dVertex
 10
0.0040001820262475
 20
0.1408499999999996
 30
0.0
  0
VERTEX
  5
201
330
1FD
100
AcDbEntity
  8
front
370
    -3
100
AcDbVertex
100
AcDb2dVertex
 10
0.0043599200728085
 20
0.1408499999999996
 30
0.0
 42
-0.0139015847942087
  0
VERTEX
  5
202
330
1FD
100
AcDbEntity
  8
front
370
    -3
100
AcDbVertex
100
AcDb2dVertex
 10
0.0044991026144748
 20
0.1418550279470478
 30
0.0
 42
-0.0139015847942136
  0
VERTEX
  5
203
330
1FD
100
AcDbEntity
  8
front
370
    -3
100
AcDbVertex
100
AcDb2dVertex
 10
0.0046939235933494
 20
0.1428507677425983
 30
0.0
  0
VERTEX
  5
204
330
1FD
100
AcDbEntity
  8
front
370
    -3
100
AcDbVertex
100
AcDb2dVertex
 10
0.003573888356199
 20
0.1428500003682242
 30
0.0
 42
-0.2125244061466939
  0
VERTEX
  5
205
330
1FD
100
AcDbEntity
  8
front
370
    -3
100
AcDbVertex
100
AcDb2dVertex
 10
0.0032137167858583
 20
0.1430103325286998
 30
0.0
 42
-0.1811812361065656
  0
VERTEX
  5
206
330
1FD
100
AcDbEntity
  8
front
370
    -3
100
AcDbVertex
100
AcDb2dVertex
 10
0.0030658189790407
 20
0.1433864084409409
 30
0.0
 42
-0.0122132210530037
  0
VERTEX
  5
207
330
1FD
100
AcDbEntity
  8
front
370
    -3
100
AcDbVertex
100
AcDb2dVertex
 10
0.0030539714685915
 20
0.143538773845984
 30
0.0
  0
VERTEX
  5
208
330
1FD
100
AcDbEntity
  8
front
370
    -3
100
AcDbVertex
100
AcDb2dVertex
 10
0.003052200050492
 20
0.1435771799054484
 30
0.0
  0
VERTEX
  5
209
330
1FD
100
AcDbEntity
  8
front
370
    -3
100
AcDbVertex
100
AcDb2dVertex
 10
0.0030509474654223
 20
0.1436160890712719
 30
0.0
  0
VERTEX
  5
20A
330
1FD
100
AcDbEntity
  8
front
370
    -3
100
AcDbVertex
100
AcDb2dVertex
 10
0.0030502140772455
 20
0.1436554920405052
 30
0.0
  0
VERTEX
  5
20B
330
1FD
100
AcDbEntity
  8
front
370
    -3
100
AcDbVertex
100
AcDb2dVertex
 10
0.0030499999999652
 20
0.1436953792725605
 30
0.0
  0
VERTEX
  5
20C
330
1FD
100
AcDbEntity
  8
front
370
    -3
100
AcDbVertex
100
AcDb2dVertex
 10
0.0030507425567582
 20
0.1760089070160648
 30
0.0
 42
-0.0161715896942898
  0
VERTEX
  5
20D
330
1FD
100
AcDbEntity
  8
front
370
    -3
100
AcDbVertex
100
AcDb2dVertex
 10
0.0030534296200141
 20
0.1760922354423314
 30
0.0
 42
-0.0411099265530469
  0
VERTEX
  5
20E
330
1FD
100
AcDbEntity
  8
front
370
    -3
100
AcDbVertex
100
AcDb2dVertex
 10
0.003065585729301
 20
0.1761744757721791
 30
0.0
 42
-0.045383605793287
  0
VERTEX
  5
20F
330
1FD
100
AcDbEntity
  8
front
370
    -3
100
AcDbVertex
100
AcDb2dVertex
 10
0.0030937876984328
 20
0.1762596841233487
 30
0.0
 42
-0.0549374619786737
  0
VERTEX
  5
210
330
1FD
100
AcDbEntity
  8
front
370
    -3
100
AcDbVertex
100
AcDb2dVertex
 10
0.0031383069471136
 20
0.1763374210200995
 30
0.0
 42
-0.0211876304402179
  0
VERTEX
  5
211
330
1FD
100
AcDbEntity
  8
front
370
    -3
100
AcDbVertex
100
AcDb2dVertex
 10
0.0032734761415238
 20
0.1765072546120728
 30
0.0
 42
-0.0077011198256154
  0
VERTEX
  5
212
330
1FD
100
AcDbEntity
  8
front
370
    -3
100
AcDbVertex
100
AcDb2dVertex
 10
0.0034183386476534
 20
0.1766691264621825
 30
0.0
 42
-0.0173175517143853
  0
VERTEX
  5
213
330
1FD
100
AcDbEntity
  8
front
370
    -3
100
AcDbVertex
100
AcDb2dVertex
 10
0.0035930131203034
 20
0.1768456760243274
 30
0.0
 42
-0.0492955412058158
  0
VERTEX
  5
214
330
1FD
100
AcDbEntity
  8
front
370
    -3
100
AcDbVertex
100
AcDb2dVertex
 10
0.0037889048858223
 20
0.1769969547411532
 30
0.0
 42
-0.0484712756491916
  0
VERTEX
  5
215
330
1FD
100
AcDbEntity
  8
front
370
    -3
100
AcDbVertex
100
AcDb2dVertex
 10
0.0044894602104645
 20
0.1771135307008125
 30
0.0
 42
-0.0164490413412728
  0
VERTEX
  5
216
330
1FD
100
AcDbEntity
  8
front
370
    -3
100
AcDbVertex
100
AcDb2dVertex
 10
0.0052018472984275
 20
0.1771385687923757
 30
0.0
 42
-0.0003963257850972
  0
VERTEX
  5
217
330
1FD
100
AcDbEntity
  8
front
370
    -3
100
AcDbVertex
100
AcDb2dVertex
 10
0.0059216742474315
 20
0.1771396085988727
 30
0.0
 42
0.0043248922716981
  0
VERTEX
  5
218
330
1FD
100
AcDbEntity
  8
front
370
    -3
100
AcDbVertex
100
AcDb2dVertex
 10
0.006641444107475
 20
0.1771463038039837
 30
0.0
 42
-0.0016521046157937
  0
VERTEX
  5
219
330
1FD
100
AcDbEntity
  8
front
370
    -3
100
AcDbVertex
100
AcDb2dVertex
 10
0.0080763814425485
 20
0.1771673230141595
 30
0.0
 42
-0.0002312780420876
  0
VERTEX
  5
21A
330
1FD
100
AcDbEntity
  8
front
370
    -3
100
AcDbVertex
100
AcDb2dVertex
 10
0.0095113954520723
 20
0.1771829371037077
 30
0.0
  0
VERTEX
  5
21B
330
1FD
100
AcDbEntity
  8
front
370
    -3
100
AcDbVertex
100
AcDb2dVertex
 10
0.03557022278598
 20
0.1771831120846807
 30
0.0
 42
-0.0002119675897517
  0
VERTEX
  5
21C
330
1FD
100
AcDbEntity
  8
front
370
    -3
100
AcDbVertex
100
AcDb2dVertex
 10
0.0370096352412844
 20
0.1771674494804686
 30
0.0
 42
-0.0016564874603838
  0
VERTEX
  5
21D
330
1FD
100
AcDbEntity
  8
front
370
    -3
100
AcDbVertex
100
AcDb2dVertex
 10
0.038448971347105
 20
0.1771464081611456
 30
0.0
 42
0.0043369702300465
  0
VERTEX
  5
21E
330
1FD
100
AcDbEntity
  8
front
370
    -3
100
AcDbVertex
100
AcDb2dVertex
 10
0.0391707637408868
 20
0.1771397264740409
 30
0.0
 42
-0.0003884384906818
  0
VERTEX
  5
21F
330
1FD
100
AcDbEntity
  8
front
370
    -3
100
AcDbVertex
100
AcDb2dVertex
 10
0.0398926133297529
 20
0.1771387449005331
 30
0.0
 42
-0.0165381362500253
  0
VERTEX
  5
220
330
1FD
100
AcDbEntity
  8
front
370
    -3
100
AcDbVertex
100
AcDb2dVertex
 10
0.0406080039418633
 20
0.1771135456278401
 30
0.0
 42
-0.048456042402907
  0
VERTEX
  5
221
330
1FD
100
AcDbEntity
  8
front
370
    -3
100
AcDbVertex
100
AcDb2dVertex
 10
0.0413111784585449
 20
0.1769963709354101
 30
0.0
 42
-0.0494742938018173
  0
VERTEX
  5
222
330
1FD
100
AcDbEntity
  8
front
370
    -3
100
AcDbVertex
100
AcDb2dVertex
 10
0.0415069938047978
 20
0.1768455224588487
 30
0.0
 42
-0.0175259943039152
  0
VERTEX
  5
223
330
1FD
100
AcDbEntity
  8
front
370
    -3
100
AcDbVertex
100
AcDb2dVertex
 10
0.0416816613522848
 20
0.176669126462174
 30
0.0
 42
-0.0077011198269456
  0
VERTEX
  5
224
330
1FD
100
AcDbEntity
  8
front
370
    -3
100
AcDbVertex
100
AcDb2dVertex
 10
0.0418265238584141
 20
0.176507254612064
 30
0.0
 42
-0.0211876308825103
  0
VERTEX
  5
225
330
1FD
100
AcDbEntity
  8
front
370
    -3
100
AcDbVertex
100
AcDb2dVertex
 10
0.0419616930526612
 20
0.1763374210199858
 30
0.0
 42
-0.0206463747187151
  0
VERTEX
  5
226
330
1FD
100
AcDbEntity
  8
front
370
    -3
100
AcDbVertex
100
AcDb2dVertex
 10
0.0419796753014023
 20
0.1763104810833518
 30
0.0
 42
-0.0190146514280456
  0
VERTEX
  5
227
330
1FD
100
AcDbEntity
  8
front
370
    -3
100
AcDbVertex
100
AcDb2dVertex
 10
0.0419954686564101
 20
0.1762821974660541
 30
0.0
 42
-0.040304324840761
  0
VERTEX
  5
228
330
1FD
100
AcDbEntity
  8
front
370
    -3
100
AcDbVertex
100
AcDb2dVertex
 10
0.0420232952078945
 20
0.1762146315200424
 30
0.0
 42
-0.0354357289194498
  0
VERTEX
  5
229
330
1FD
100
AcDbEntity
  8
front
370
    -3
100
AcDbVertex
100
AcDb2dVertex
 10
0.0420406252886975
 20
0.1761435891113673
 30
0.0
 42
-0.0311358736013243
  0
VERTEX
  5
22A
330
1FD
100
AcDbEntity
  8
front
370
    -3
100
AcDbVertex
100
AcDb2dVertex
 10
0.042047776623691
 20
0.1760764872444081
 30
0.0
 42
-0.0110071391132055
  0
VERTEX
  5
22B
330
1FD
100
AcDbEntity
  8
front
370
    -3
100
AcDbVertex
100
AcDb2dVertex
 10
0.0420492574431722
 20
0.1760089070160648
 30
0.0
  0
VERTEX
  5
22C
330
1FD
100
AcDbEntity
  8
front
370
    -3
100
AcDbVertex
100
AcDb2dVertex
 10
0.0420502830923703
 20
0.1436915363424146
 30
0.0
 42
-0.012666504153016
  0
VERTEX
  5
22D
330
1FD
100
AcDbEntity
  8
front
370
    -3
100
AcDbVertex
100
AcDb2dVertex
 10
0.0420460284978161
 20
0.1435387737736706
 30
0.0
 42
-0.0122133120722656
  0
VERTEX
  5
22E
330
1FD
100
AcDbEntity
  8
front
370
    -3
100
AcDbVertex
100
AcDb2dVertex
 10
0.0420341810208897
 20
0.1433864084409409
 30
0.0
 42
-0.1811812361065121
  0
VERTEX
  5
22F
330
1FD
100
AcDbEntity
  8
front
370
    -3
100
AcDbVertex
100
AcDb2dVertex
 10
0.041886283214072
 20
0.1430103325286997
 30
0.0
 42
-0.2125244061466988
  0
VERTEX
  5
230
330
1FD
100
AcDbEntity
  8
front
370
    -3
100
AcDbVertex
100
AcDb2dVertex
 10
0.0415261116437313
 20
0.1428500003682242
 30
0.0
  0
VERTEX
  5
231
330
1FD
100
AcDbEntity
  8
front
370
    -3
100
AcDbVertex
100
AcDb2dVertex
 10
0.0403062327477223
 20
0.1428500718573196
 30
0.0
 42
-0.013896698704759
  0
VERTEX
  5
232
330
1FD
100
AcDbEntity
  8
front
370
    -3
100
AcDbVertex
100
AcDb2dVertex
 10
0.0405009561020874
 20
0.1418546761984468
 30
0.0
 42
-0.0138966987047571
  0
VERTEX
  5
233
330
1FD
100
AcDbEntity
  8
front
370
    -3
100
AcDbVertex
100
AcDb2dVertex
 10
0.0406400799271915
 20
0.1408499999999995
 30
0.0
  0
VERTEX
  5
234
330
1FD
100
AcDbEntity
  8
front
370
    -3
100
AcDbVertex
100
AcDb2dVertex
 10
0.0409998179737525
 20
0.1408499999999995
 30
0.0
 42
-0.1383178896896355
  0
VERTEX
  5
235
330
1FD
100
AcDbEntity
  8
front
370
    -3
100
AcDbVertex
100
AcDb2dVertex
 10
0.0412610642122752
 20
0.1407763203153607
 30
0.0
 42
-0.1383156302228553
  0
VERTEX
  5
236
330
1FD
100
AcDbEntity
  8
front
370
    -3
100
AcDbVertex
100
AcDb2dVertex
 10
0.0414453159489687
 20
0.1405769970230124
 30
0.0
  0
VERTEX
  5
237
330
1FD
100
AcDbEntity
  8
front
370
    -3
100
AcDbVertex
100
AcDb2dVertex
 10
0.0414999999999999
 20
0.1099319431843225
 30
0.0
  0
VERTEX
  5
238
330
1FD
100
AcDbEntity
  8
front
370
    -3
100
AcDbVertex
100
AcDb2dVertex
 10
0.0414999999999999
 20
0.0028499999999995
 30
0.0
  0
VERTEX
  5
239
330
1FD
100
AcDbEntity
  8
front
370
    -3
100
AcDbVertex
100
AcDb2dVertex
 10
0.04485
 20
0.00285
 30
0.0
 42
-0.4142135623730793
  0
VERTEX
  5
23A
330
1FD
100
AcDbEntity
  8
front
370
    -3
100
AcDbVertex
100
AcDb2dVertex
 10
0.045
 20
0.0027
 30
0.0
  0
VERTEX
  5
23B
330
1FD
100
AcDbEntity
  8
front
370
    -3
100
AcDbVertex
100
AcDb2dVertex
 10
0.045
 20
0.0
 30
0.0
  0
VERTEX
  5
23C
330
1FD
100
AcDbEntity
  8
front
370
    -3
100
AcDbVertex
100
AcDb2dVertex
 10
0.0
 20
0.0
 30
0.0
  0
VERTEX
  5
23D
330
1FD
100
AcDbEntity
  8
front
370
    -3
100
AcDbVertex
100
AcDb2dVertex
 10
0.0
 20
0.0027
 30
0.0
 42
-0.4142135623731064
  0
VERTEX
  5
23E
330
1FD
100
AcDbEntity
  8
front
370
    -3
100
AcDbVertex
100
AcDb2dVertex
 10
0.00015
 20
0.00285
 30
0.0
  0
VERTEX
  5
23F
330
1FD
100
AcDbEntity
  8
front
370
    -3
100
AcDbVertex
100
AcDb2dVertex
 10
0.0034999999999999
 20
0.0028499999999995
 30
0.0
  0
VERTEX
  5
240
330
1FD
100
AcDbEntity
  8
front
370
    -3
100
AcDbVertex
100
AcDb2dVertex
 10
0.0035000934729379
 20
0.1099299165541508
 30
0.0
  0
SEQEND
  5
241
330
1FD
100
AcDbEntity
  8
front
370
    -3
  0
ENDSEC
  0
SECTION
  2
OBJECTS
  0
DICTIONARY
  5
C
330
0
100
AcDbDictionary
281
     1
  3
ACAD_DETAILVIEWSTYLE
350
27D
  3
ACAD_GROUP
350
D
  3
ACAD_LAYOUT
350
1A
  3
ACAD_MATERIAL
350
43
  3
ACAD_MLEADERSTYLE
350
5B
  3
ACAD_MLINESTYLE
350
17
  3
ACAD_PLOTSETTINGS
350
19
  3
ACAD_PLOTSTYLENAME
350
E
  3
ACAD_SCALELIST
350
47
  3
ACAD_SECTIONVIEWSTYLE
350
27E
  3
ACAD_TABLESTYLE
350
59
  3
ACAD_VISUALSTYLE
350
2A
  3
ACDB_RECOMPOSE_DATA
350
27A
  3
AcDbVariableDictionary
350
242
  0
SUN
  5
5D
330
29
100
AcDbSun
 90
        1
290
     0
 63
     7
421
 16777215
 40
1.0
291
     1
 91
  2455826
 92
 54000000
292
     0
 70
     2
 71
   256
280
     1
  0
DICTIONARY
  5
27D
102
{ACAD_REACTORS
330
C
102
}
330
C
100
AcDbDictionary
281
     1
  0
DICTIONARY
  5
D
102
{ACAD_REACTORS
330
C
102
}
330
C
100
AcDbDictionary
281
     1
  0
DICTIONARY
  5
1A
102
{ACAD_REACTORS
330
C
102
}
330
C
100
AcDbDictionary
281
     1
  3
Layout1
350
1E
  3
Layout2
350
26
  3
Model
350
22
  0
DICTIONARY
  5
43
102
{ACAD_REACTORS
330
C
102
}
330
C
100
AcDbDictionary
281
     1
  3
ByBlock
350
45
  3
ByLayer
350
44
  3
Global
350
46
  0
DICTIONARY
  5
5B
102
{ACAD_REACTORS
330
C
102
}
330
C
100
AcDbDictionary
281
     1
  3
Standard
350
5C
  0
DICTIONARY
  5
17
102
{ACAD_REACTORS
330
C
102
}
330
C
100
AcDbDictionary
281
     1
  3
Standard
350
18
  0
DICTIONARY
  5
19
102
{ACAD_REACTORS
330
C
102
}
330
C
100
AcDbDictionary
281
     1
  0
ACDBDICTIONARYWDFLT
  5
E
102
{ACAD_REACTORS
330
C
102
}
330
C
100
AcDbDictionary
281
     1
  3
Normal
350
F
100
AcDbDictionaryWithDefault
340
F
  0
DICTIONARY
  5
47
102
{ACAD_REACTORS
330
C
102
}
330
C
100
AcDbDictionary
281
     1
  3
A0
350
48
  3
A1
350
49
  3
A2
350
4A
  3
A3
350
4B
  3
A4
350
4C
  3
A5
350
4D
  3
A6
350
4E
  3
A7
350
4F
  3
A8
350
50
  3
A9
350
51
  3
B1
350
52
  3
B2
350
53
  3
B3
350
54
  3
B4
350
55
  3
B5
350
56
  3
B6
350
57
  3
B7
350
58
  0
DICTIONARY
  5
27E
102
{ACAD_REACTORS
330
C
102
}
330
C
100
AcDbDictionary
281
     1
  0
DICTIONARY
  5
59
102
{ACAD_REACTORS
330
C
102
}
330
C
100
AcDbDictionary
281
     1
  3
Standard
350
5A
  0
DICTIONARY
  5
2A
102
{ACAD_REACTORS
330
C
102
}
330
C
100
AcDbDictionary
281
     1
  3
2dWireframe
350
2F
  3
Basic
350
32
  3
Brighten
350
36
  3
ColorChange
350
3A
  3
Conceptual
350
34
  3
Dim
350
35
  3
EdgeColorOff
350
3D
  3
Facepattern
350
39
  3
Flat
350
2B
  3
FlatWithEdges
350
2C
  3
Gouraud
350
2D
  3
GouraudWithEdges
350
2E
  3
Hidden
350
31
  3
JitterOff
350
3B
  3
Linepattern
350
38
  3
OverhangOff
350
3C
  3
Realistic
350
33
  3
Shaded
350
42
  3
Shaded with edges
350
41
  3
Shades of Gray
350
3E
  3
Sketchy
350
3F
  3
Thicken
350
37
  3
Wireframe
350
30
  3
X-Ray
350
40
  0
XRECORD
  5
27A
102
{ACAD_REACTORS
330
C
102
}
330
C
100
AcDbXrecord
280
     1
 90
        1
330
5A
  0
DICTIONARY
  5
242
102
{ACAD_REACTORS
330
C
102
}
330
C
100
AcDbDictionary
281
     1
  3
CANNOSCALE
350
243
  3
CMLEADERSTYLE
350
27C
  3
CTABLESTYLE
350
27B
  3
XCLIPFRAME
350
244
  0
LAYOUT
  5
1E
102
{ACAD_REACTORS
330
1A
102
}
330
1A
100
AcDbPlotSettings
  1

  2
none_device
  4

  6

 40
0.0
 41
0.0
 42
0.0
 43
0.0
 44
0.0
 45
0.0
 46
0.0
 47
0.0
 48
0.0
 49
0.0
140
0.0
141
0.0
142
1.0
143
1.0
 70
   688
 72
     0
 73
     0
 74
     5
  7

 75
    16
 76
     0
 77
     2
 78
   300
147
1.0
148
0.0
149
0.0
100
AcDbLayout
  1
Layout1
 70
     1
 71
     1
 10
0.0
 20
0.0
 11
12.0
 21
9.0
 12
0.0
 22
0.0
 32
0.0
 14
1.000000000000000E+20
 24
1.000000000000000E+20
 34
1.000000000000000E+20
 15
-1.000000000000000E+20
 25
-1.000000000000000E+20
 35
-1.000000000000000E+20
146
0.0
 13
0.0
 23
0.0
 33
0.0
 16
1.0
 26
0.0
 36
0.0
 17
0.0
 27
1.0
 37
0.0
 76
     0
330
1B
  0
LAYOUT
  5
26
102
{ACAD_REACTORS
330
1A
102
}
330
1A
100
AcDbPlotSettings
  1

  2
none_device
  4

  6

 40
0.0
 41
0.0
 42
0.0
 43
0.0
 44
0.0
 45
0.0
 46
0.0
 47
0.0
 48
0.0
 49
0.0
140
0.0
141
0.0
142
1.0
143
1.0
 70
   688
 72
     0
 73
     0
 74
     5
  7

 75
    16
 76
     0
 77
     2
 78
   300
147
1.0
148
0.0
149
0.0
100
AcDbLayout
  1
Layout2
 70
     1
 71
     2
 10
0.0
 20
0.0
 11
0.0
 21
0.0
 12
0.0
 22
0.0
 32
0.0
 14
0.0
 24
0.0
 34
0.0
 15
0.0
 25
0.0
 35
0.0
146
0.0
 13
0.0
 23
0.0
 33
0.0
 16
1.0
 26
0.0
 36
0.0
 17
0.0
 27
1.0
 37
0.0
 76
     0
330
23
  0
LAYOUT
  5
22
102
{ACAD_REACTORS
330
1A
102
}
330
1A
100
AcDbPlotSettings
  1

  2
none_device
  4
Letter_(8.50_x_11.00_Inches)
  6

 40
6.35
 41
6.35
 42
6.35000508
 43
6.35000508
 44
215.9
 45
279.4
 46
0.0
 47
0.0
 48
0.0
 49
0.0
140
0.0
141
0.0
142
1.0
143
1.0
 70
  1712
 72
     0
 73
     0
 74
     0
  7

 75
     0
 76
     0
 77
     2
 78
   300
147
1.0
148
0.0
149
0.0
100
AcDbLayout
  1
Model
 70
     1
 71
     0
 10
0.0
 20
0.0
 11
12.0
 21
9.0
 12
0.0
 22
0.0
 32
0.0
 14
1.000000000000000E+20
 24
1.000000000000000E+20
 34
1.000000000000000E+20
 15
-1.000000000000000E+20
 25
-1.000000000000000E+20
 35
-1.000000000000000E+20
146
0.0
 13
0.0
 23
0.0
 33
0.0
 16
1.0
 26
0.0
 36
0.0
 17
0.0
 27
1.0
 37
0.0
 76
     0
330
1F
331
29
  0
MATERIAL
  5
45
102
{ACAD_REACTORS
330
43
102
}
330
43
100
AcDbMaterial
  1
ByBlock
 72
     1
 94
      127
  0
MATERIAL
  5
44
102
{ACAD_REACTORS
330
43
102
}
330
43
100
AcDbMaterial
  1
ByLayer
 72
     1
 94
      127
  0
MATERIAL
  5
46
102
{ACAD_REACTORS
330
43
102
}
330
43
100
AcDbMaterial
  1
Global
 72
     1
 94
      127
  0
MLEADERSTYLE
  5
5C
102
{ACAD_REACTORS
330
5B
102
}
102
{ACAD_XDICTIONARY
360
278
102
}
330
5B
100
AcDbMLeaderStyle
170
     2
171
     1
172
     0
 90
        2
 40
0.0
 41
0.0
173
     1
 91
-1056964608
340
14
 92
       -2
290
     1
 42
0.09
291
     1
 43
0.36
  3
Standard
341
0
 44
0.18
300

342
11
174
     1
178
     6
175
     1
176
     0
 93
-1056964608
 45
0.18
292
     0
297
     0
 46
0.18
343
0
 94
-1056964608
 47
1.0
 49
1.0
140
1.0
293
     1
141
0.0
294
     1
177
     0
142
1.0
295
     0
296
     0
143
0.125
1001
ACAD_MLEADERVER
1070
     2
  0
MLINESTYLE
  5
18
102
{ACAD_REACTORS
330
17
102
}
330
17
100
AcDbMlineStyle
  2
Standard
 70
     0
  3

 62
   256
 51
90.0
 52
90.0
 71
     2
 49
0.5
 62
   256
  6
BYLAYER
 49
-0.5
 62
   256
  6
BYLAYER
  0
ACDBPLACEHOLDER
  5
F
102
{ACAD_REACTORS
330
E
102
}
330
E
  0
SCALE
  5
48
102
{ACAD_REACTORS
330
47
102
}
330
47
100
AcDbScale
 70
     0
300
1:1
140
1.0
141
1.0
290
     1
  0
SCALE
  5
49
102
{ACAD_REACTORS
330
47
102
}
330
47
100
AcDbScale
 70
     0
300
1/128" = 1'-0"
140
0.0078125
141
12.0
290
     0
  0
SCALE
  5
4A
102
{ACAD_REACTORS
330
47
102
}
330
47
100
AcDbScale
 70
     0
300
1/64" = 1'-0"
140
0.015625
141
12.0
290
     0
  0
SCALE
  5
4B
102
{ACAD_REACTORS
330
47
102
}
330
47
100
AcDbScale
 70
     0
300
1/32" = 1'-0"
140
0.03125
141
12.0
290
     0
  0
SCALE
  5
4C
102
{ACAD_REACTORS
330
47
102
}
330
47
100
AcDbScale
 70
     0
300
1/16" = 1'-0"
140
0.0625
141
12.0
290
     0
  0
SCALE
  5
4D
102
{ACAD_REACTORS
330
47
102
}
330
47
100
AcDbScale
 70
     0
300
3/32" = 1'-0"
140
0.09375
141
12.0
290
     0
  0
SCALE
  5
4E
102
{ACAD_REACTORS
330
47
102
}
330
47
100
AcDbScale
 70
     0
300
1/8" = 1'-0"
140
0.125
141
12.0
290
     0
  0
SCALE
  5
4F
102
{ACAD_REACTORS
330
47
102
}
330
47
100
AcDbScale
 70
     0
300
3/16" = 1'-0"
140
0.1875
141
12.0
290
     0
  0
SCALE
  5
50
102
{ACAD_REACTORS
330
47
102
}
330
47
100
AcDbScale
 70
     0
300
1/4" = 1'-0"
140
0.25
141
12.0
290
     0
  0
SCALE
  5
51
102
{ACAD_REACTORS
330
47
102
}
330
47
100
AcDbScale
 70
     0
300
3/8" = 1'-0"
140
0.375
141
12.0
290
     0
  0
SCALE
  5
52
102
{ACAD_REACTORS
330
47
102
}
330
47
100
AcDbScale
 70
     0
300
1/2" = 1'-0"
140
0.5
141
12.0
290
     0
  0
SCALE
  5
53
102
{ACAD_REACTORS
330
47
102
}
330
47
100
AcDbScale
 70
     0
300
3/4" = 1'-0"
140
0.75
141
12.0
290
     0
  0
SCALE
  5
54
102
{ACAD_REACTORS
330
47
102
}
330
47
100
AcDbScale
 70
     0
300
1" = 1'-0"
140
1.0
141
12.0
290
     0
  0
SCALE
  5
55
102
{ACAD_REACTORS
330
47
102
}
330
47
100
AcDbScale
 70
     0
300
1-1/2" = 1'-0"
140
1.5
141
12.0
290
     0
  0
SCALE
  5
56
102
{ACAD_REACTORS
330
47
102
}
330
47
100
AcDbScale
 70
     0
300
3" = 1'-0"
140
3.0
141
12.0
290
     0
  0
SCALE
  5
57
102
{ACAD_REACTORS
330
47
102
}
330
47
100
AcDbScale
 70
     0
300
6" = 1'-0"
140
6.0
141
12.0
290
     0
  0
SCALE
  5
58
102
{ACAD_REACTORS
330
47
102
}
330
47
100
AcDbScale
 70
     0
300
1'-0" = 1'-0"
140
12.0
141
12.0
290
     0
  0
TABLESTYLE
  5
5A
102
{ACAD_REACTORS
330
59
102
}
102
{ACAD_XDICTIONARY
360
275
102
}
330
59
100
AcDbTableStyle
  3
Standard
 70
     0
 71
     0
 40
0.06
 41
0.06
280
     0
281
     0
  7
Standard
140
0.18
170
     2
 62
     0
 63
   257
283
     0
 90
        4
 91
        0
  1

274
    -2
284
     1
 64
     0
275
    -2
285
     1
 65
     0
276
    -2
286
     1
 66
     0
277
    -2
287
     1
 67
     0
278
    -2
288
     1
 68
     0
279
    -2
289
     1
 69
     0
  7
Standard
140
0.25
170
     5
 62
     0
 63
   257
283
     0
 90
        4
 91
        0
  1

274
    -2
284
     1
 64
     0
275
    -2
285
     1
 65
     0
276
    -2
286
     1
 66
     0
277
    -2
287
     1
 67
     0
278
    -2
288
     1
 68
     0
279
    -2
289
     1
 69
     0
  7
Standard
140
0.18
170
     5
 62
     0
 63
   257
283
     0
 90
        4
 91
        0
  1

274
    -2
284
     1
 64
     0
275
    -2
285
     1
 65
     0
276
    -2
286
     1
 66
     0
277
    -2
287
     1
 67
     0
278
    -2
288
     1
 68
     0
279
    -2
289
     1
 69
     0
  0
VISUALSTYLE
  5
2F
102
{ACAD_REACTORS
330
2A
102
}
102
{ACAD_XDICTIONARY
360
24D
102
}
330
2A
100
AcDbVisualStyle
  2
2dWireframe
 70
     4
 71
     0
 72
     2
 73
     0
 90
        0
 40
0.6
 41
30.0
 62
     5
 63
     7
421
 16777215
 74
     1
 91
        4
 64
     7
 65
   257
 75
     1
175
     1
 42
1.0
 92
        0
 66
   257
 43
1.0
 76
     1
 77
     6
 78
     2
 67
     7
 79
     5
170
     0
171
     0
290
     0
174
     0
 93
        1
 44
0.0
173
     0
291
     0
 45
0.0
  0
VISUALSTYLE
  5
32
102
{ACAD_REACTORS
330
2A
102
}
102
{ACAD_XDICTIONARY
360
253
102
}
330
2A
100
AcDbVisualStyle
  2
Basic
 70
     7
 71
     1
 72
     0
 73
     1
 90
        0
 40
0.6
 41
30.0
 62
     5
 63
     7
421
 16777215
 74
     0
 91
        4
 64
     7
 65
   257
 75
     1
175
     1
 42
1.0
 92
        8
 66
     7
 43
1.0
 76
     1
 77
     6
 78
     2
 67
     7
 79
     5
170
     0
171
     0
290
     0
174
     0
 93
        1
 44
0.0
173
     0
291
     1
 45
0.0
  0
VISUALSTYLE
  5
36
102
{ACAD_REACTORS
330
2A
102
}
102
{ACAD_XDICTIONARY
360
25B
102
}
330
2A
100
AcDbVisualStyle
  2
Brighten
 70
    12
 71
     2
 72
     2
 73
     0
 90
        0
 40
0.6
 41
30.0
 62
     5
 63
     7
421
 16777215
 74
     1
 91
        4
 64
     7
 65
   257
 75
     1
175
     1
 42
1.0
 92
        8
 66
     7
 43
1.0
 76
     1
 77
     6
 78
     2
 67
     7
 79
     5
170
     0
171
     0
290
     0
174
     0
 93
        1
 44
50.0
173
     0
291
     1
 45
0.0
  0
VISUALSTYLE
  5
3A
102
{ACAD_REACTORS
330
2A
102
}
102
{ACAD_XDICTIONARY
360
263
102
}
330
2A
100
AcDbVisualStyle
  2
ColorChange
 70
    16
 71
     2
 72
     2
 73
     3
 90
        0
 40
0.6
 41
30.0
 62
     5
 63
     8
421
  8421504
 74
     1
 91
        4
 64
     7
 65
   257
 75
     1
175
     1
 42
1.0
 92
        8
 66
     8
424
  8421504
 43
1.0
 76
     1
 77
     6
 78
     2
 67
     7
 79
     5
170
     0
171
     0
290
     0
174
     0
 93
        1
 44
0.0
173
     0
291
     1
 45
0.0
  0
VISUALSTYLE
  5
34
102
{ACAD_REACTORS
330
2A
102
}
102
{ACAD_XDICTIONARY
360
257
102
}
330
2A
100
AcDbVisualStyle
  2
Conceptual
 70
     9
 71
     3
 72
     2
 73
     0
 90
        0
 40
0.6
 41
30.0
 62
     5
 63
     7
421
 16777215
 74
     2
 91
        2
 64
     7
 65
   257
 75
     1
175
     1
 42
179.0
 92
        8
 66
     7
 43
1.0
 76
     1
 77
     6
 78
     2
 67
     7
 79
     3
170
     0
171
     0
290
     0
174
     0
 93
        1
 44
0.0
173
     0
291
     0
 45
0.0
  0
VISUALSTYLE
  5
35
102
{ACAD_REACTORS
330
2A
102
}
102
{ACAD_XDICTIONARY
360
259
102
}
330
2A
100
AcDbVisualStyle
  2
Dim
 70
    11
 71
     2
 72
     2
 73
     0
 90
        0
 40
0.6
 41
30.0
 62
     5
 63
     7
421
 16777215
 74
     1
 91
        4
 64
     7
 65
   257
 75
     1
175
     1
 42
1.0
 92
        8
 66
     7
 43
1.0
 76
     1
 77
     6
 78
     2
 67
     7
 79
     5
170
     0
171
     0
290
     0
174
     0
 93
        1
 44
-50.0
173
     0
291
     1
 45
0.0
  0
VISUALSTYLE
  5
3D
102
{ACAD_REACTORS
330
2A
102
}
102
{ACAD_XDICTIONARY
360
269
102
}
330
2A
100
AcDbVisualStyle
  2
EdgeColorOff
 70
    22
 71
     2
 72
     2
 73
     0
 90
        0
 40
0.6
 41
30.0
 62
     5
 63
     7
421
 16777215
 74
     1
 91
        4
 64
     7
 65
   257
 75
     1
175
     1
 42
1.0
 92
        8
 66
     7
 43
1.0
 76
     1
 77
     6
 78
     2
 67
     7
 79
     5
170
     0
171
     0
290
     0
174
     0
 93
        1
 44
0.0
173
     0
291
     1
 45
0.0
  0
VISUALSTYLE
  5
39
102
{ACAD_REACTORS
330
2A
102
}
102
{ACAD_XDICTIONARY
360
261
102
}
330
2A
100
AcDbVisualStyle
  2
Facepattern
 70
    15
 71
     2
 72
     2
 73
     0
 90
        0
 40
0.6
 41
30.0
 62
     5
 63
     7
421
 16777215
 74
     1
 91
        4
 64
     7
 65
   257
 75
     1
175
     1
 42
1.0
 92
        8
 66
     7
 43
1.0
 76
     1
 77
     6
 78
     2
 67
     7
 79
     5
170
     0
171
     0
290
     0
174
     0
 93
        1
 44
0.0
173
     0
291
     1
 45
0.0
  0
VISUALSTYLE
  5
2B
102
{ACAD_REACTORS
330
2A
102
}
102
{ACAD_XDICTIONARY
360
245
102
}
330
2A
100
AcDbVisualStyle
  2
Flat
 70
     0
 71
     2
 72
     1
 73
     1
 90
        2
 40
0.6
 41
30.0
 62
     5
 63
     7
421
 16777215
 74
     0
 91
        0
 64
     7
 65
   257
 75
     1
175
     1
 42
1.0
 92
        8
 66
     7
 43
1.0
 76
     1
 77
     6
 78
     2
 67
     7
 79
     5
170
     0
171
     0
290
     0
174
     0
 93
       13
 44
0.0
173
     0
291
     1
 45
0.0
  0
VISUALSTYLE
  5
2C
102
{ACAD_REACTORS
330
2A
102
}
102
{ACAD_XDICTIONARY
360
247
102
}
330
2A
100
AcDbVisualStyle
  2
FlatWithEdges
 70
     1
 71
     2
 72
     1
 73
     1
 90
        2
 40
0.6
 41
30.0
 62
     5
 63
     7
421
 16777215
 74
     1
 91
        0
 64
     7
 65
   257
 75
     1
175
     1
 42
1.0
 92
        0
 66
   257
 43
1.0
 76
     1
 77
     6
 78
     2
 67
     7
 79
     5
170
     0
171
     0
290
     0
174
     0
 93
       13
 44
0.0
173
     0
291
     1
 45
0.0
  0
VISUALSTYLE
  5
2D
102
{ACAD_REACTORS
330
2A
102
}
102
{ACAD_XDICTIONARY
360
249
102
}
330
2A
100
AcDbVisualStyle
  2
Gouraud
 70
     2
 71
     2
 72
     2
 73
     1
 90
        2
 40
0.6
 41
30.0
 62
     5
 63
     7
421
 16777215
 74
     0
 91
        0
 64
     7
 65
   257
 75
     1
175
     1
 42
1.0
 92
        0
 66
     7
 43
1.0
 76
     1
 77
     6
 78
     2
 67
     7
 79
     5
170
     0
171
     0
290
     0
174
     0
 93
       13
 44
0.0
173
     0
291
     1
 45
0.0
  0
VISUALSTYLE
  5
2E
102
{ACAD_REACTORS
330
2A
102
}
102
{ACAD_XDICTIONARY
360
24B
102
}
330
2A
100
AcDbVisualStyle
  2
GouraudWithEdges
 70
     3
 71
     2
 72
     2
 73
     1
 90
        2
 40
0.6
 41
30.0
 62
     5
 63
     7
421
 16777215
 74
     1
 91
        0
 64
     7
 65
   257
 75
     1
175
     1
 42
1.0
 92
        0
 66
   257
 43
1.0
 76
     1
 77
     6
 78
     2
 67
     7
 79
     5
170
     0
171
     0
290
     0
174
     0
 93
       13
 44
0.0
173
     0
291
     1
 45
0.0
  0
VISUALSTYLE
  5
31
102
{ACAD_REACTORS
330
2A
102
}
102
{ACAD_XDICTIONARY
360
251
102
}
330
2A
100
AcDbVisualStyle
  2
Hidden
 70
     6
 71
     1
 72
     2
 73
     2
 90
        0
 40
0.6
 41
30.0
 62
     5
 63
     7
421
 16777215
 74
     2
 91
        2
 64
     7
 65
   257
 75
     2
175
     1
 42
40.0
 92
        0
 66
   257
 43
1.0
 76
     1
 77
     6
 78
     2
 67
     7
 79
     3
170
     0
171
     0
290
     0
174
     0
 93
        1
 44
0.0
173
     0
291
     0
 45
0.0
  0
VISUALSTYLE
  5
3B
102
{ACAD_REACTORS
330
2A
102
}
102
{ACAD_XDICTIONARY
360
265
102
}
330
2A
100
AcDbVisualStyle
  2
JitterOff
 70
    20
 71
     2
 72
     2
 73
     0
 90
        0
 40
0.6
 41
30.0
 62
     5
 63
     7
421
 16777215
 74
     1
 91
        4
 64
     7
 65
   257
 75
     1
175
     1
 42
1.0
 92
       10
 66
     7
 43
1.0
 76
     1
 77
     6
 78
     2
 67
     7
 79
     5
170
     0
171
     0
290
     0
174
     0
 93
        1
 44
0.0
173
     0
291
     1
 45
0.0
  0
VISUALSTYLE
  5
38
102
{ACAD_REACTORS
330
2A
102
}
102
{ACAD_XDICTIONARY
360
25F
102
}
330
2A
100
AcDbVisualStyle
  2
Linepattern
 70
    14
 71
     2
 72
     2
 73
     0
 90
        0
 40
0.6
 41
30.0
 62
     5
 63
     7
421
 16777215
 74
     1
 91
        4
 64
     7
 65
   257
 75
     7
175
     7
 42
1.0
 92
        8
 66
     7
 43
1.0
 76
     1
 77
     6
 78
     2
 67
     7
 79
     5
170
     0
171
     0
290
     0
174
     0
 93
        1
 44
0.0
173
     0
291
     1
 45
0.0
  0
VISUALSTYLE
  5
3C
102
{ACAD_REACTORS
330
2A
102
}
102
{ACAD_XDICTIONARY
360
267
102
}
330
2A
100
AcDbVisualStyle
  2
OverhangOff
 70
    21
 71
     2
 72
     2
 73
     0
 90
        0
 40
0.6
 41
30.0
 62
     5
 63
     7
421
 16777215
 74
     1
 91
        4
 64
     7
 65
   257
 75
     1
175
     1
 42
1.0
 92
        9
 66
     7
 43
1.0
 76
     1
 77
     6
 78
     2
 67
     7
 79
     5
170
     0
171
     0
290
     0
174
     0
 93
        1
 44
0.0
173
     0
291
     1
 45
0.0
  0
VISUALSTYLE
  5
33
102
{ACAD_REACTORS
330
2A
102
}
102
{ACAD_XDICTIONARY
360
255
102
}
330
2A
100
AcDbVisualStyle
  2
Realistic
 70
     8
 71
     2
 72
     3
 73
     0
 90
        2
 40
0.6
 41
30.0
 62
     5
 63
     7
421
 16777215
 74
     0
 91
        0
 64
     7
 65
   257
 75
     1
175
     1
 42
1.0
 92
        8
 66
   257
 43
1.0
 76
     1
 77
     6
 78
     2
 67
     7
 79
     3
170
     0
171
     0
290
     0
174
     0
 93
       13
 44
0.0
173
     0
291
     0
 45
0.0
  0
VISUALSTYLE
  5
42
102
{ACAD_REACTORS
330
2A
102
}
102
{ACAD_XDICTIONARY
360
273
102
}
330
2A
100
AcDbVisualStyle
  2
Shaded
 70
    27
 71
     2
 72
     2
 73
     1
 90
        2
 40
0.6
 41
30.0
 62
     5
 63
     7
421
 16777215
 74
     0
 91
        4
 64
     7
 65
   257
 75
     1
175
     1
 42
1.0
 92
        8
 66
   257
 43
1.0
 76
     1
 77
     6
 78
     2
 67
     8
425
  7895160
 79
     3
170
     0
171
     0
290
     0
174
     0
 93
        5
 44
0.0
173
     0
291
     0
 45
0.0
  0
VISUALSTYLE
  5
41
102
{ACAD_REACTORS
330
2A
102
}
102
{ACAD_XDICTIONARY
360
271
102
}
330
2A
100
AcDbVisualStyle
  2
Shaded with edges
 70
    26
 71
     2
 72
     2
 73
     1
 90
        2
 40
0.6
 41
30.0
 62
     5
 63
     7
421
 16777215
 74
     1
 91
       10
 64
     7
 65
   257
 75
     2
175
     1
 42
1.0
 92
        8
 66
   257
 43
1.0
 76
     1
 77
     6
 78
     2
 67
     7
 79
     3
170
     0
171
     0
290
     0
174
     0
 93
        5
 44
0.0
173
     0
291
     0
 45
0.0
  0
VISUALSTYLE
  5
3E
102
{ACAD_REACTORS
330
2A
102
}
102
{ACAD_XDICTIONARY
360
26B
102
}
330
2A
100
AcDbVisualStyle
  2
Shades of Gray
 70
    23
 71
     2
 72
     2
 73
     3
 90
        0
 40
0.6
 41
30.0
 62
     5
 63
     7
421
 16777215
 74
     2
 91
        2
 64
     7
 65
     7
 75
     1
175
     1
 42
40.0
 92
        8
 66
     7
 43
1.0
 76
     1
 77
     6
 78
     2
 67
     7
 79
     3
170
     0
171
     0
290
     0
174
     0
 93
        1
 44
0.0
173
     0
291
     0
 45
0.0
  0
VISUALSTYLE
  5
3F
102
{ACAD_REACTORS
330
2A
102
}
102
{ACAD_XDICTIONARY
360
26D
102
}
330
2A
100
AcDbVisualStyle
  2
Sketchy
 70
    24
 71
     1
 72
     2
 73
     2
 90
        0
 40
0.6
 41
30.0
 62
     5
 63
     7
421
 16777215
 74
     2
 91
        2
 64
     7
 65
     7
 75
     1
175
     1
 42
40.0
 92
       11
 66
     7
 43
1.0
 76
     1
 77
     6
 78
     2
 67
     7
 79
     6
170
     0
171
     0
290
     0
174
     0
 93
        1
 44
0.0
173
     0
291
     0
 45
0.0
  0
VISUALSTYLE
  5
37
102
{ACAD_REACTORS
330
2A
102
}
102
{ACAD_XDICTIONARY
360
25D
102
}
330
2A
100
AcDbVisualStyle
  2
Thicken
 70
    13
 71
     2
 72
     2
 73
     0
 90
        0
 40
0.6
 41
30.0
 62
     5
 63
     7
421
 16777215
 74
     1
 91
        4
 64
     7
 65
   257
 75
     1
175
     1
 42
1.0
 92
       12
 66
     7
 43
1.0
 76
     1
 77
     6
 78
     2
 67
     7
 79
     5
170
     0
171
     0
290
     0
174
     0
 93
        1
 44
0.0
173
     0
291
     1
 45
0.0
  0
VISUALSTYLE
  5
30
102
{ACAD_REACTORS
330
2A
102
}
102
{ACAD_XDICTIONARY
360
24F
102
}
330
2A
100
AcDbVisualStyle
  2
Wireframe
 70
     5
 71
     0
 72
     2
 73
     0
 90
        0
 40
0.6
 41
30.0
 62
     5
 63
     7
421
 16777215
 74
     1
 91
        4
 64
     7
 65
   257
 75
     1
175
     1
 42
1.0
 92
        0
 66
   257
 43
1.0
 76
     1
 77
     6
 78
     2
 67
     7
 79
     3
170
     0
171
     0
290
     0
174
     0
 93
        1
 44
0.0
173
     0
291
     0
 45
0.0
  0
VISUALSTYLE
  5
40
102
{ACAD_REACTORS
330
2A
102
}
102
{ACAD_XDICTIONARY
360
26F
102
}
330
2A
100
AcDbVisualStyle
  2
X-Ray
 70
    25
 71
     2
 72
     2
 73
     1
 90
        1
 40
0.5
 41
30.0
 62
     5
 63
     7
421
 16777215
 74
     1
 91
        0
 64
     7
 65
   257
 75
     1
175
     1
 42
1.0
 92
        8
 66
     7
 43
1.0
 76
     1
 77
     6
 78
     2
 67
     7
 79
     3
170
     0
171
     0
290
     0
174
     0
 93
       13
 44
0.0
173
     0
291
     0
 45
0.0
  0
DICTIONARYVAR
  5
243
102
{ACAD_REACTORS
330
242
102
}
330
242
100
DictionaryVariables
280
     0
  1
1:1
  0
DICTIONARYVAR
  5
27C
102
{ACAD_REACTORS
330
242
102
}
330
242
100
DictionaryVariables
280
     0
  1
Standard
  0
DICTIONARYVAR
  5
27B
102
{ACAD_REACTORS
330
242
102
}
330
242
100
DictionaryVariables
280
     0
  1
Standard
  0
DICTIONARYVAR
  5
244
102
{ACAD_REACTORS
330
242
102
}
330
242
100
DictionaryVariables
280
     0
  1
2
  0
DICTIONARY
  5
278
330
5C
100
AcDbDictionary
280
     1
281
     1
  3
ACAD_XREC_ROUNDTRIP
360
279
  0
DICTIONARY
  5
275
330
5A
100
AcDbDictionary
280
     1
281
     1
  3
ACAD_ROUNDTRIP_2008_TABLESTYLE_CELLSTYLEMAP
360
276
  0
DICTIONARY
  5
24D
330
2F
100
AcDbDictionary
280
     1
281
     1
  3
ACAD_XREC_ROUNDTRIP
360
24E
  0
DICTIONARY
  5
253
330
32
100
AcDbDictionary
280
     1
281
     1
  3
ACAD_XREC_ROUNDTRIP
360
254
  0
DICTIONARY
  5
25B
330
36
100
AcDbDictionary
280
     1
281
     1
  3
ACAD_XREC_ROUNDTRIP
360
25C
  0
DICTIONARY
  5
263
330
3A
100
AcDbDictionary
280
     1
281
     1
  3
ACAD_XREC_ROUNDTRIP
360
264
  0
DICTIONARY
  5
257
330
34
100
AcDbDictionary
280
     1
281
     1
  3
ACAD_XREC_ROUNDTRIP
360
258
  0
DICTIONARY
  5
259
330
35
100
AcDbDictionary
280
     1
281
     1
  3
ACAD_XREC_ROUNDTRIP
360
25A
  0
DICTIONARY
  5
269
330
3D
100
AcDbDictionary
280
     1
281
     1
  3
ACAD_XREC_ROUNDTRIP
360
26A
  0
DICTIONARY
  5
261
330
39
100
AcDbDictionary
280
     1
281
     1
  3
ACAD_XREC_ROUNDTRIP
360
262
  0
DICTIONARY
  5
245
330
2B
100
AcDbDictionary
280
     1
281
     1
  3
ACAD_XREC_ROUNDTRIP
360
246
  0
DICTIONARY
  5
247
330
2C
100
AcDbDictionary
280
     1
281
     1
  3
ACAD_XREC_ROUNDTRIP
360
248
  0
DICTIONARY
  5
249
330
2D
100
AcDbDictionary
280
     1
281
     1
  3
ACAD_XREC_ROUNDTRIP
360
24A
  0
DICTIONARY
  5
24B
330
2E
100
AcDbDictionary
280
     1
281
     1
  3
ACAD_XREC_ROUNDTRIP
360
24C
  0
DICTIONARY
  5
251
330
31
100
AcDbDictionary
280
     1
281
     1
  3
ACAD_XREC_ROUNDTRIP
360
252
  0
DICTIONARY
  5
265
330
3B
100
AcDbDictionary
280
     1
281
     1
  3
ACAD_XREC_ROUNDTRIP
360
266
  0
DICTIONARY
  5
25F
330
38
100
AcDbDictionary
280
     1
281
     1
  3
ACAD_XREC_ROUNDTRIP
360
260
  0
DICTIONARY
  5
267
330
3C
100
AcDbDictionary
280
     1
281
     1
  3
ACAD_XREC_ROUNDTRIP
360
268
  0
DICTIONARY
  5
255
330
33
100
AcDbDictionary
280
     1
281
     1
  3
ACAD_XREC_ROUNDTRIP
360
256
  0
DICTIONARY
  5
273
330
42
100
AcDbDictionary
280
     1
281
     1
  3
ACAD_XREC_ROUNDTRIP
360
274
  0
DICTIONARY
  5
271
330
41
100
AcDbDictionary
280
     1
281
     1
  3
ACAD_XREC_ROUNDTRIP
360
272
  0
DICTIONARY
  5
26B
330
3E
100
AcDbDictionary
280
     1
281
     1
  3
ACAD_XREC_ROUNDTRIP
360
26C
  0
DICTIONARY
  5
26D
330
3F
100
AcDbDictionary
280
     1
281
     1
  3
ACAD_XREC_ROUNDTRIP
360
26E
  0
DICTIONARY
  5
25D
330
37
100
AcDbDictionary
280
     1
281
     1
  3
ACAD_XREC_ROUNDTRIP
360
25E
  0
DICTIONARY
  5
24F
330
30
100
AcDbDictionary
280
     1
281
     1
  3
ACAD_XREC_ROUNDTRIP
360
250
  0
DICTIONARY
  5
26F
330
40
100
AcDbDictionary
280
     1
281
     1
  3
ACAD_XREC_ROUNDTRIP
360
270
  0
XRECORD
  5
279
102
{ACAD_REACTORS
330
278
102
}
330
278
100
AcDbXrecord
280
     1
102
ACAD_ROUNDTRIP_2010_MLEADER_STYLE
  0
CELLSTYLEMAP
  5
276
102
{ACAD_REACTORS
330
275
102
}
330
275
100
AcDbCellStyleMap
 90
        3
300
CELLSTYLE
  1
TABLEFORMAT_BEGIN
 90
        5
170
     1
 91
        0
 92
    32768
 62
   257
 93
        1
300
CONTENTFORMAT
  1
CONTENTFORMAT_BEGIN
 90
        0
 91
        0
 92
        4
 93
        0
300

 40
0.0
140
1.0
 94
        5
 62
     0
340
11
144
0.25
309
CONTENTFORMAT_END
171
     1
301
MARGIN
  1
CELLMARGIN_BEGIN
 40
0.06
 40
0.06
 40
0.06
 40
0.06
 40
0.06
 40
0.06
309
CELLMARGIN_END
 94
        6
 95
        1
302
GRIDFORMAT
  1
GRIDFORMAT_BEGIN
 90
        0
 91
        1
 62
     0
 92
       -2
340
14
 93
        0
 40
0.045
309
GRIDFORMAT_END
 95
        2
302
GRIDFORMAT
  1
GRIDFORMAT_BEGIN
 90
        0
 91
        1
 62
     0
 92
       -2
340
14
 93
        0
 40
0.045
309
GRIDFORMAT_END
 95
        4
302
GRIDFORMAT
  1
GRIDFORMAT_BEGIN
 90
        0
 91
        1
 62
     0
 92
       -2
340
14
 93
        0
 40
0.045
309
GRIDFORMAT_END
 95
        8
302
GRIDFORMAT
  1
GRIDFORMAT_BEGIN
 90
        0
 91
        1
 62
     0
 92
       -2
340
14
 93
        0
 40
0.045
309
GRIDFORMAT_END
 95
       16
302
GRIDFORMAT
  1
GRIDFORMAT_BEGIN
 90
        0
 91
        1
 62
     0
 92
       -2
340
14
 93
        0
 40
0.045
309
GRIDFORMAT_END
 95
       32
302
GRIDFORMAT
  1
GRIDFORMAT_BEGIN
 90
        0
 91
        1
 62
     0
 92
       -2
340
14
 93
        0
 40
0.045
309
GRIDFORMAT_END
309
TABLEFORMAT_END
  1
CELLSTYLE_BEGIN
 90
        1
 91
        1
300
_TITLE
309
CELLSTYLE_END
300
CELLSTYLE
  1
TABLEFORMAT_BEGIN
 90
        5
170
     1
 91
        0
 92
        0
 62
   257
 93
        1
300
CONTENTFORMAT
  1
CONTENTFORMAT_BEGIN
 90
        0
 91
        0
 92
        4
 93
        0
300

 40
0.0
140
1.0
 94
        5
 62
     0
340
11
144
0.18
309
CONTENTFORMAT_END
171
     1
301
MARGIN
  1
CELLMARGIN_BEGIN
 40
0.06
 40
0.06
 40
0.06
 40
0.06
 40
0.06
 40
0.06
309
CELLMARGIN_END
 94
        6
 95
        1
302
GRIDFORMAT
  1
GRIDFORMAT_BEGIN
 90
        0
 91
        1
 62
     0
 92
       -2
340
14
 93
        0
 40
0.045
309
GRIDFORMAT_END
 95
        2
302
GRIDFORMAT
  1
GRIDFORMAT_BEGIN
 90
        0
 91
        1
 62
     0
 92
       -2
340
14
 93
        0
 40
0.045
309
GRIDFORMAT_END
 95
        4
302
GRIDFORMAT
  1
GRIDFORMAT_BEGIN
 90
        0
 91
        1
 62
     0
 92
       -2
340
14
 93
        0
 40
0.045
309
GRIDFORMAT_END
 95
        8
302
GRIDFORMAT
  1
GRIDFORMAT_BEGIN
 90
        0
 91
        1
 62
     0
 92
       -2
340
14
 93
        0
 40
0.045
309
GRIDFORMAT_END
 95
       16
302
GRIDFORMAT
  1
GRIDFORMAT_BEGIN
 90
        0
 91
        1
 62
     0
 92
       -2
340
14
 93
        0
 40
0.045
309
GRIDFORMAT_END
 95
       32
302
GRIDFORMAT
  1
GRIDFORMAT_BEGIN
 90
        0
 91
        1
 62
     0
 92
       -2
340
14
 93
        0
 40
0.045
309
GRIDFORMAT_END
309
TABLEFORMAT_END
  1
CELLSTYLE_BEGIN
 90
        2
 91
        1
300
_HEADER
309
CELLSTYLE_END
300
CELLSTYLE
  1
TABLEFORMAT_BEGIN
 90
        5
170
     1
 91
        0
 92
        0
 62
   257
 93
        1
300
CONTENTFORMAT
  1
CONTENTFORMAT_BEGIN
 90
        0
 91
        0
 92
        4
 93
        0
300

 40
0.0
140
1.0
 94
        2
 62
     0
340
11
144
0.18
309
CONTENTFORMAT_END
171
     1
301
MARGIN
  1
CELLMARGIN_BEGIN
 40
0.06
 40
0.06
 40
0.06
 40
0.06
 40
0.06
 40
0.06
309
CELLMARGIN_END
 94
        6
 95
        1
302
GRIDFORMAT
  1
GRIDFORMAT_BEGIN
 90
        0
 91
        1
 62
     0
 92
       -2
340
14
 93
        0
 40
0.045
309
GRIDFORMAT_END
 95
        2
302
GRIDFORMAT
  1
GRIDFORMAT_BEGIN
 90
        0
 91
        1
 62
     0
 92
       -2
340
14
 93
        0
 40
0.045
309
GRIDFORMAT_END
 95
        4
302
GRIDFORMAT
  1
GRIDFORMAT_BEGIN
 90
        0
 91
        1
 62
     0
 92
       -2
340
14
 93
        0
 40
0.045
309
GRIDFORMAT_END
 95
        8
302
GRIDFORMAT
  1
GRIDFORMAT_BEGIN
 90
        0
 91
        1
 62
     0
 92
       -2
340
14
 93
        0
 40
0.045
309
GRIDFORMAT_END
 95
       16
302
GRIDFORMAT
  1
GRIDFORMAT_BEGIN
 90
        0
 91
        1
 62
     0
 92
       -2
340
14
 93
        0
 40
0.045
309
GRIDFORMAT_END
 95
       32
302
GRIDFORMAT
  1
GRIDFORMAT_BEGIN
 90
        0
 91
        1
 62
     0
 92
       -2
340
14
 93
        0
 40
0.045
309
GRIDFORMAT_END
309
TABLEFORMAT_END
  1
CELLSTYLE_BEGIN
 90
        3
 91
        2
300
_DATA
309
CELLSTYLE_END
  0
XRECORD
  5
24E
102
{ACAD_REACTORS
330
24D
102
}
330
24D
100
AcDbXrecord
280
     1
102
RTVSPropertyOp0
 70
     1
102
RTVSPropertyOp1
 70
     1
102
RTVSPropertyOp2
 70
     1
102
RTVSPropertyOp3
 70
     1
102
RTVSPropertyOp4
 70
     1
102
RTVSPropertyOp5
 70
     1
102
RTVSPropertyOp6
 70
     1
102
RTVSPropertyOp7
 70
     1
102
RTVSPropertyOp8
 70
     1
102
RTVSPropertyOp9
 70
     1
102
RTVSPropertyOp10
 70
     1
102
RTVSPropertyOp11
 70
     1
102
RTVSPropertyOp12
 70
     1
102
RTVSPropertyOp13
 70
     1
102
RTVSPropertyOp14
 70
     1
102
RTVSPropertyOp15
 70
     1
102
RTVSPropertyOp16
 70
     1
102
RTVSPropertyOp17
 70
     1
102
RTVSPropertyOp18
 70
     1
102
RTVSPropertyOp19
 70
     1
102
RTVSPropertyOp20
 70
     1
102
RTVSPropertyOp21
 70
     1
102
RTVSPropertyOp22
 70
     1
102
RTVSPropertyOp23
 70
     1
102
RTVSPropertyOp24
 70
     1
102
RTVSPropertyOp25
 70
     1
102
RTVSPropertyOp26
 70
     1
102
RTVSPropertyOp27
 70
     1
102
RTVSPropertyOp28
 70
     1
102
RTVSPropertyOp29
 70
     1
102
RTVSPropertyOp30
 70
     1
102
RTVSPropertyOp31
 70
     1
102
RTVSPropertyOp32
 70
     1
102
RTVSPropertyOp33
 70
     1
102
RTVSPropertyOp34
 70
     1
102
RTVSPropertyOp35
 70
     1
102
RTVSPropertyOp36
 70
     1
102
RTVSPropertyOp37
 70
     1
102
RTVSPropertyOp38
 70
     1
102
RTVSPropertyOp39
 70
     1
102
RTVSPropertyOp40
 70
     1
102
RTVSPropertyOp41
 70
     1
102
RTVSPropertyOp42
 70
     1
102
RTVSPropertyOp43
 70
     1
102
RTVSPropertyOp44
 70
     1
102
RTVSPropertyOp45
 70
     1
102
RTVSPropertyOp46
 70
     1
102
RTVSPropertyOp47
 70
     1
102
RTVSPropertyOp48
 70
     1
102
RTVSPropertyOp49
 70
     1
102
RTVSPropertyOp50
 70
     1
102
RTVSPropertyOp51
 70
     0
102
RTVSPropertyOp52
 70
     0
102
RTVSPropertyOp53
 70
     1
102
RTVSPropertyOp54
 70
     1
102
RTVSPropertyOp55
 70
     1
102
RTVSPropertyOp56
 70
     1
102
RTVSPropertyOp57
 70
     1
102
RTVSPost2010Prop28
280
     1
102
RTVSPost2010PropOp28
 70
     1
102
RTVSPost2010Prop29
280
     1
102
RTVSPost2010PropOp29
 70
     1
102
RTVSPost2010Prop30
280
     0
102
RTVSPost2010PropOp30
 70
     1
102
RTVSPost2010Prop31
280
     0
102
RTVSPost2010PropOp31
 70
     1
102
RTVSPost2010Prop32
280
     0
102
RTVSPost2010PropOp32
 70
     1
102
RTVSPost2010Prop33
280
     0
102
RTVSPost2010PropOp33
 70
     1
102
RTVSPost2010Prop34
280
     0
102
RTVSPost2010PropOp34
 70
     1
102
RTVSPost2010Prop35
280
     0
102
RTVSPost2010PropOp35
 70
     1
102
RTVSPost2010Prop36
280
     0
102
RTVSPost2010PropOp36
 70
     1
102
RTVSPost2010Prop37
 90
       50
102
RTVSPost2010PropOp37
 70
     1
102
RTVSPost2010Prop38
140
0.0
102
RTVSPost2010PropOp38
 70
     1
102
RTVSPost2010Prop39
140
1.0
102
RTVSPost2010PropOp39
 70
     1
102
RTVSPost2010Prop40
 90
        0
102
RTVSPost2010PropOp40
 70
     1
102
RTVSPost2010Prop41ColorIndex
 90
       18
102
RTVSPost2010Prop41ColorRGB
 90
        0
102
RTVSPost2010PropOp41
 70
     1
102
RTVSPost2010Prop42
 90
       50
102
RTVSPost2010PropOp42
 70
     1
102
RTVSPost2010Prop43
 90
        3
102
RTVSPost2010PropOp43
 70
     1
102
RTVSPost2010Prop44ColorIndex
 90
        5
102
RTVSPost2010Prop44ColorRGB
 90
      255
102
RTVSPost2010PropOp44
 70
     1
102
RTVSPost2010Prop45
280
     0
102
RTVSPost2010PropOp45
 70
     1
102
RTVSPost2010Prop46
 90
       50
102
RTVSPost2010PropOp46
 70
     1
102
RTVSPost2010Prop47
 90
       50
102
RTVSPost2010PropOp47
 70
     1
102
RTVSPost2010Prop48
 90
       50
102
RTVSPost2010PropOp48
 70
     1
102
RTVSPost2010Prop49
280
     0
102
RTVSPost2010PropOp49
 70
     1
102
RTVSPost2010Prop50
 90
       50
102
RTVSPost2010PropOp50
 70
     1
102
RTVSPost2010Prop51ColorIndex
 90
      256
102
RTVSPost2010Prop51ColorRGB
 90
-16777216
102
RTVSPost2010PropOp51
 70
     0
102
RTVSPost2010Prop52
140
1.0
102
RTVSPost2010PropOp52
 70
     0
102
RTVSPost2010Prop53
 90
        2
102
RTVSPost2010PropOp53
 70
     1
102
RTVSPost2010Prop54
  1
strokes_ogs.tif
102
RTVSPost2010PropOp54
 70
     1
102
RTVSPost2010Prop55
280
     0
102
RTVSPost2010PropOp55
 70
     1
102
RTVSPost2010Prop56
140
1.0
102
RTVSPost2010PropOp56
 70
     1
102
RTVSPost2010Prop57
140
1.0
102
RTVSPost2010PropOp57
 70
     1
  0
XRECORD
  5
254
102
{ACAD_REACTORS
330
253
102
}
330
253
100
AcDbXrecord
280
     1
102
RTVSPropertyOp0
 70
     1
102
RTVSPropertyOp1
 70
     1
102
RTVSPropertyOp2
 70
     1
102
RTVSPropertyOp3
 70
     1
102
RTVSPropertyOp4
 70
     1
102
RTVSPropertyOp5
 70
     1
102
RTVSPropertyOp6
 70
     1
102
RTVSPropertyOp7
 70
     1
102
RTVSPropertyOp8
 70
     1
102
RTVSPropertyOp9
 70
     1
102
RTVSPropertyOp10
 70
     1
102
RTVSPropertyOp11
 70
     1
102
RTVSPropertyOp12
 70
     1
102
RTVSPropertyOp13
 70
     1
102
RTVSPropertyOp14
 70
     1
102
RTVSPropertyOp15
 70
     1
102
RTVSPropertyOp16
 70
     1
102
RTVSPropertyOp17
 70
     1
102
RTVSPropertyOp18
 70
     1
102
RTVSPropertyOp19
 70
     1
102
RTVSPropertyOp20
 70
     1
102
RTVSPropertyOp21
 70
     1
102
RTVSPropertyOp22
 70
     1
102
RTVSPropertyOp23
 70
     1
102
RTVSPropertyOp24
 70
     1
102
RTVSPropertyOp25
 70
     1
102
RTVSPropertyOp26
 70
     1
102
RTVSPropertyOp27
 70
     1
102
RTVSPropertyOp28
 70
     1
102
RTVSPropertyOp29
 70
     1
102
RTVSPropertyOp30
 70
     1
102
RTVSPropertyOp31
 70
     1
102
RTVSPropertyOp32
 70
     1
102
RTVSPropertyOp33
 70
     1
102
RTVSPropertyOp34
 70
     1
102
RTVSPropertyOp35
 70
     1
102
RTVSPropertyOp36
 70
     1
102
RTVSPropertyOp37
 70
     1
102
RTVSPropertyOp38
 70
     1
102
RTVSPropertyOp39
 70
     1
102
RTVSPropertyOp40
 70
     1
102
RTVSPropertyOp41
 70
     1
102
RTVSPropertyOp42
 70
     1
102
RTVSPropertyOp43
 70
     1
102
RTVSPropertyOp44
 70
     1
102
RTVSPropertyOp45
 70
     1
102
RTVSPropertyOp46
 70
     1
102
RTVSPropertyOp47
 70
     1
102
RTVSPropertyOp48
 70
     1
102
RTVSPropertyOp49
 70
     1
102
RTVSPropertyOp50
 70
     1
102
RTVSPropertyOp51
 70
     0
102
RTVSPropertyOp52
 70
     0
102
RTVSPropertyOp53
 70
     1
102
RTVSPropertyOp54
 70
     1
102
RTVSPropertyOp55
 70
     1
102
RTVSPropertyOp56
 70
     1
102
RTVSPropertyOp57
 70
     1
102
RTVSPost2010Prop28
280
     0
102
RTVSPost2010PropOp28
 70
     1
102
RTVSPost2010Prop29
280
     1
102
RTVSPost2010PropOp29
 70
     1
102
RTVSPost2010Prop30
280
     1
102
RTVSPost2010PropOp30
 70
     1
102
RTVSPost2010Prop31
280
     0
102
RTVSPost2010PropOp31
 70
     1
102
RTVSPost2010Prop32
280
     0
102
RTVSPost2010PropOp32
 70
     1
102
RTVSPost2010Prop33
280
     0
102
RTVSPost2010PropOp33
 70
     1
102
RTVSPost2010Prop34
280
     0
102
RTVSPost2010PropOp34
 70
     1
102
RTVSPost2010Prop35
280
     0
102
RTVSPost2010PropOp35
 70
     1
102
RTVSPost2010Prop36
280
     0
102
RTVSPost2010PropOp36
 70
     1
102
RTVSPost2010Prop37
 90
       50
102
RTVSPost2010PropOp37
 70
     1
102
RTVSPost2010Prop38
140
0.0
102
RTVSPost2010PropOp38
 70
     1
102
RTVSPost2010Prop39
140
1.0
102
RTVSPost2010PropOp39
 70
     1
102
RTVSPost2010Prop40
 90
        0
102
RTVSPost2010PropOp40
 70
     1
102
RTVSPost2010Prop41ColorIndex
 90
       18
102
RTVSPost2010Prop41ColorRGB
 90
        0
102
RTVSPost2010PropOp41
 70
     1
102
RTVSPost2010Prop42
 90
       50
102
RTVSPost2010PropOp42
 70
     1
102
RTVSPost2010Prop43
 90
        3
102
RTVSPost2010PropOp43
 70
     1
102
RTVSPost2010Prop44ColorIndex
 90
        5
102
RTVSPost2010Prop44ColorRGB
 90
      255
102
RTVSPost2010PropOp44
 70
     1
102
RTVSPost2010Prop45
280
     0
102
RTVSPost2010PropOp45
 70
     1
102
RTVSPost2010Prop46
 90
       50
102
RTVSPost2010PropOp46
 70
     1
102
RTVSPost2010Prop47
 90
       50
102
RTVSPost2010PropOp47
 70
     1
102
RTVSPost2010Prop48
 90
       50
102
RTVSPost2010PropOp48
 70
     1
102
RTVSPost2010Prop49
280
     0
102
RTVSPost2010PropOp49
 70
     1
102
RTVSPost2010Prop50
 90
       50
102
RTVSPost2010PropOp50
 70
     1
102
RTVSPost2010Prop51ColorIndex
 90
      256
102
RTVSPost2010Prop51ColorRGB
 90
-16777216
102
RTVSPost2010PropOp51
 70
     0
102
RTVSPost2010Prop52
140
1.0
102
RTVSPost2010PropOp52
 70
     0
102
RTVSPost2010Prop53
 90
        2
102
RTVSPost2010PropOp53
 70
     1
102
RTVSPost2010Prop54
  1
strokes_ogs.tif
102
RTVSPost2010PropOp54
 70
     1
102
RTVSPost2010Prop55
280
     0
102
RTVSPost2010PropOp55
 70
     1
102
RTVSPost2010Prop56
140
1.0
102
RTVSPost2010PropOp56
 70
     1
102
RTVSPost2010Prop57
140
1.0
102
RTVSPost2010PropOp57
 70
     1
  0
XRECORD
  5
25C
102
{ACAD_REACTORS
330
25B
102
}
330
25B
100
AcDbXrecord
280
     1
102
RTVSPropertyOp0
 70
     1
102
RTVSPropertyOp1
 70
     1
102
RTVSPropertyOp2
 70
     1
102
RTVSPropertyOp3
 70
     1
102
RTVSPropertyOp4
 70
     1
102
RTVSPropertyOp5
 70
     1
102
RTVSPropertyOp6
 70
     1
102
RTVSPropertyOp7
 70
     1
102
RTVSPropertyOp8
 70
     1
102
RTVSPropertyOp9
 70
     1
102
RTVSPropertyOp10
 70
     1
102
RTVSPropertyOp11
 70
     1
102
RTVSPropertyOp12
 70
     1
102
RTVSPropertyOp13
 70
     1
102
RTVSPropertyOp14
 70
     1
102
RTVSPropertyOp15
 70
     1
102
RTVSPropertyOp16
 70
     1
102
RTVSPropertyOp17
 70
     1
102
RTVSPropertyOp18
 70
     1
102
RTVSPropertyOp19
 70
     1
102
RTVSPropertyOp20
 70
     1
102
RTVSPropertyOp21
 70
     1
102
RTVSPropertyOp22
 70
     1
102
RTVSPropertyOp23
 70
     1
102
RTVSPropertyOp24
 70
     1
102
RTVSPropertyOp25
 70
     1
102
RTVSPropertyOp26
 70
     1
102
RTVSPropertyOp27
 70
     1
102
RTVSPropertyOp28
 70
     1
102
RTVSPropertyOp29
 70
     1
102
RTVSPropertyOp30
 70
     1
102
RTVSPropertyOp31
 70
     1
102
RTVSPropertyOp32
 70
     1
102
RTVSPropertyOp33
 70
     1
102
RTVSPropertyOp34
 70
     1
102
RTVSPropertyOp35
 70
     1
102
RTVSPropertyOp36
 70
     1
102
RTVSPropertyOp37
 70
     1
102
RTVSPropertyOp38
 70
     1
102
RTVSPropertyOp39
 70
     1
102
RTVSPropertyOp40
 70
     1
102
RTVSPropertyOp41
 70
     1
102
RTVSPropertyOp42
 70
     1
102
RTVSPropertyOp43
 70
     1
102
RTVSPropertyOp44
 70
     1
102
RTVSPropertyOp45
 70
     1
102
RTVSPropertyOp46
 70
     1
102
RTVSPropertyOp47
 70
     1
102
RTVSPropertyOp48
 70
     1
102
RTVSPropertyOp49
 70
     1
102
RTVSPropertyOp50
 70
     1
102
RTVSPropertyOp51
 70
     0
102
RTVSPropertyOp52
 70
     0
102
RTVSPropertyOp53
 70
     1
102
RTVSPropertyOp54
 70
     1
102
RTVSPropertyOp55
 70
     1
102
RTVSPropertyOp56
 70
     1
102
RTVSPropertyOp57
 70
     1
102
RTVSPost2010Prop28
280
     0
102
RTVSPost2010PropOp28
 70
     1
102
RTVSPost2010Prop29
280
     1
102
RTVSPost2010PropOp29
 70
     1
102
RTVSPost2010Prop30
280
     1
102
RTVSPost2010PropOp30
 70
     1
102
RTVSPost2010Prop31
280
     0
102
RTVSPost2010PropOp31
 70
     1
102
RTVSPost2010Prop32
280
     0
102
RTVSPost2010PropOp32
 70
     1
102
RTVSPost2010Prop33
280
     0
102
RTVSPost2010PropOp33
 70
     1
102
RTVSPost2010Prop34
280
     0
102
RTVSPost2010PropOp34
 70
     1
102
RTVSPost2010Prop35
280
     0
102
RTVSPost2010PropOp35
 70
     1
102
RTVSPost2010Prop36
280
     0
102
RTVSPost2010PropOp36
 70
     1
102
RTVSPost2010Prop37
 90
       50
102
RTVSPost2010PropOp37
 70
     1
102
RTVSPost2010Prop38
140
0.0
102
RTVSPost2010PropOp38
 70
     1
102
RTVSPost2010Prop39
140
1.0
102
RTVSPost2010PropOp39
 70
     1
102
RTVSPost2010Prop40
 90
        0
102
RTVSPost2010PropOp40
 70
     1
102
RTVSPost2010Prop41ColorIndex
 90
       18
102
RTVSPost2010Prop41ColorRGB
 90
        0
102
RTVSPost2010PropOp41
 70
     1
102
RTVSPost2010Prop42
 90
       50
102
RTVSPost2010PropOp42
 70
     1
102
RTVSPost2010Prop43
 90
        3
102
RTVSPost2010PropOp43
 70
     1
102
RTVSPost2010Prop44ColorIndex
 90
        5
102
RTVSPost2010Prop44ColorRGB
 90
      255
102
RTVSPost2010PropOp44
 70
     1
102
RTVSPost2010Prop45
280
     0
102
RTVSPost2010PropOp45
 70
     1
102
RTVSPost2010Prop46
 90
       50
102
RTVSPost2010PropOp46
 70
     1
102
RTVSPost2010Prop47
 90
       50
102
RTVSPost2010PropOp47
 70
     1
102
RTVSPost2010Prop48
 90
       50
102
RTVSPost2010PropOp48
 70
     1
102
RTVSPost2010Prop49
280
     0
102
RTVSPost2010PropOp49
 70
     1
102
RTVSPost2010Prop50
 90
       50
102
RTVSPost2010PropOp50
 70
     1
102
RTVSPost2010Prop51ColorIndex
 90
      256
102
RTVSPost2010Prop51ColorRGB
 90
-16777216
102
RTVSPost2010PropOp51
 70
     0
102
RTVSPost2010Prop52
140
1.0
102
RTVSPost2010PropOp52
 70
     0
102
RTVSPost2010Prop53
 90
        2
102
RTVSPost2010PropOp53
 70
     1
102
RTVSPost2010Prop54
  1
strokes_ogs.tif
102
RTVSPost2010PropOp54
 70
     1
102
RTVSPost2010Prop55
280
     0
102
RTVSPost2010PropOp55
 70
     1
102
RTVSPost2010Prop56
140
1.0
102
RTVSPost2010PropOp56
 70
     1
102
RTVSPost2010Prop57
140
1.0
102
RTVSPost2010PropOp57
 70
     1
  0
XRECORD
  5
264
102
{ACAD_REACTORS
330
263
102
}
330
263
100
AcDbXrecord
280
     1
102
RTVSPropertyOp0
 70
     1
102
RTVSPropertyOp1
 70
     1
102
RTVSPropertyOp2
 70
     1
102
RTVSPropertyOp3
 70
     1
102
RTVSPropertyOp4
 70
     1
102
RTVSPropertyOp5
 70
     1
102
RTVSPropertyOp6
 70
     1
102
RTVSPropertyOp7
 70
     1
102
RTVSPropertyOp8
 70
     1
102
RTVSPropertyOp9
 70
     1
102
RTVSPropertyOp10
 70
     1
102
RTVSPropertyOp11
 70
     1
102
RTVSPropertyOp12
 70
     1
102
RTVSPropertyOp13
 70
     1
102
RTVSPropertyOp14
 70
     1
102
RTVSPropertyOp15
 70
     1
102
RTVSPropertyOp16
 70
     1
102
RTVSPropertyOp17
 70
     1
102
RTVSPropertyOp18
 70
     1
102
RTVSPropertyOp19
 70
     1
102
RTVSPropertyOp20
 70
     1
102
RTVSPropertyOp21
 70
     1
102
RTVSPropertyOp22
 70
     1
102
RTVSPropertyOp23
 70
     1
102
RTVSPropertyOp24
 70
     1
102
RTVSPropertyOp25
 70
     1
102
RTVSPropertyOp26
 70
     1
102
RTVSPropertyOp27
 70
     1
102
RTVSPropertyOp28
 70
     1
102
RTVSPropertyOp29
 70
     1
102
RTVSPropertyOp30
 70
     1
102
RTVSPropertyOp31
 70
     1
102
RTVSPropertyOp32
 70
     1
102
RTVSPropertyOp33
 70
     1
102
RTVSPropertyOp34
 70
     1
102
RTVSPropertyOp35
 70
     1
102
RTVSPropertyOp36
 70
     1
102
RTVSPropertyOp37
 70
     1
102
RTVSPropertyOp38
 70
     1
102
RTVSPropertyOp39
 70
     1
102
RTVSPropertyOp40
 70
     1
102
RTVSPropertyOp41
 70
     1
102
RTVSPropertyOp42
 70
     1
102
RTVSPropertyOp43
 70
     1
102
RTVSPropertyOp44
 70
     1
102
RTVSPropertyOp45
 70
     1
102
RTVSPropertyOp46
 70
     1
102
RTVSPropertyOp47
 70
     1
102
RTVSPropertyOp48
 70
     1
102
RTVSPropertyOp49
 70
     1
102
RTVSPropertyOp50
 70
     1
102
RTVSPropertyOp51
 70
     0
102
RTVSPropertyOp52
 70
     0
102
RTVSPropertyOp53
 70
     1
102
RTVSPropertyOp54
 70
     1
102
RTVSPropertyOp55
 70
     1
102
RTVSPropertyOp56
 70
     1
102
RTVSPropertyOp57
 70
     1
102
RTVSPost2010Prop28
280
     0
102
RTVSPost2010PropOp28
 70
     1
102
RTVSPost2010Prop29
280
     1
102
RTVSPost2010PropOp29
 70
     1
102
RTVSPost2010Prop30
280
     1
102
RTVSPost2010PropOp30
 70
     1
102
RTVSPost2010Prop31
280
     0
102
RTVSPost2010PropOp31
 70
     1
102
RTVSPost2010Prop32
280
     0
102
RTVSPost2010PropOp32
 70
     1
102
RTVSPost2010Prop33
280
     0
102
RTVSPost2010PropOp33
 70
     1
102
RTVSPost2010Prop34
280
     0
102
RTVSPost2010PropOp34
 70
     1
102
RTVSPost2010Prop35
280
     0
102
RTVSPost2010PropOp35
 70
     1
102
RTVSPost2010Prop36
280
     0
102
RTVSPost2010PropOp36
 70
     1
102
RTVSPost2010Prop37
 90
       50
102
RTVSPost2010PropOp37
 70
     1
102
RTVSPost2010Prop38
140
0.0
102
RTVSPost2010PropOp38
 70
     1
102
RTVSPost2010Prop39
140
1.0
102
RTVSPost2010PropOp39
 70
     1
102
RTVSPost2010Prop40
 90
        0
102
RTVSPost2010PropOp40
 70
     1
102
RTVSPost2010Prop41ColorIndex
 90
       18
102
RTVSPost2010Prop41ColorRGB
 90
        0
102
RTVSPost2010PropOp41
 70
     1
102
RTVSPost2010Prop42
 90
       50
102
RTVSPost2010PropOp42
 70
     1
102
RTVSPost2010Prop43
 90
        3
102
RTVSPost2010PropOp43
 70
     1
102
RTVSPost2010Prop44ColorIndex
 90
        5
102
RTVSPost2010Prop44ColorRGB
 90
      255
102
RTVSPost2010PropOp44
 70
     1
102
RTVSPost2010Prop45
280
     0
102
RTVSPost2010PropOp45
 70
     1
102
RTVSPost2010Prop46
 90
       50
102
RTVSPost2010PropOp46
 70
     1
102
RTVSPost2010Prop47
 90
       50
102
RTVSPost2010PropOp47
 70
     1
102
RTVSPost2010Prop48
 90
       50
102
RTVSPost2010PropOp48
 70
     1
102
RTVSPost2010Prop49
280
     0
102
RTVSPost2010PropOp49
 70
     1
102
RTVSPost2010Prop50
 90
       50
102
RTVSPost2010PropOp50
 70
     1
102
RTVSPost2010Prop51ColorIndex
 90
      256
102
RTVSPost2010Prop51ColorRGB
 90
-16777216
102
RTVSPost2010PropOp51
 70
     0
102
RTVSPost2010Prop52
140
1.0
102
RTVSPost2010PropOp52
 70
     0
102
RTVSPost2010Prop53
 90
        2
102
RTVSPost2010PropOp53
 70
     1
102
RTVSPost2010Prop54
  1
strokes_ogs.tif
102
RTVSPost2010PropOp54
 70
     1
102
RTVSPost2010Prop55
280
     0
102
RTVSPost2010PropOp55
 70
     1
102
RTVSPost2010Prop56
140
1.0
102
RTVSPost2010PropOp56
 70
     1
102
RTVSPost2010Prop57
140
1.0
102
RTVSPost2010PropOp57
 70
     1
  0
XRECORD
  5
258
102
{ACAD_REACTORS
330
257
102
}
330
257
100
AcDbXrecord
280
     1
102
RTVSPropertyOp0
 70
     1
102
RTVSPropertyOp1
 70
     1
102
RTVSPropertyOp2
 70
     1
102
RTVSPropertyOp3
 70
     1
102
RTVSPropertyOp4
 70
     1
102
RTVSPropertyOp5
 70
     1
102
RTVSPropertyOp6
 70
     1
102
RTVSPropertyOp7
 70
     1
102
RTVSPropertyOp8
 70
     1
102
RTVSPropertyOp9
 70
     1
102
RTVSPropertyOp10
 70
     1
102
RTVSPropertyOp11
 70
     1
102
RTVSPropertyOp12
 70
     1
102
RTVSPropertyOp13
 70
     1
102
RTVSPropertyOp14
 70
     1
102
RTVSPropertyOp15
 70
     1
102
RTVSPropertyOp16
 70
     1
102
RTVSPropertyOp17
 70
     1
102
RTVSPropertyOp18
 70
     1
102
RTVSPropertyOp19
 70
     1
102
RTVSPropertyOp20
 70
     1
102
RTVSPropertyOp21
 70
     1
102
RTVSPropertyOp22
 70
     1
102
RTVSPropertyOp23
 70
     1
102
RTVSPropertyOp24
 70
     1
102
RTVSPropertyOp25
 70
     1
102
RTVSPropertyOp26
 70
     1
102
RTVSPropertyOp27
 70
     1
102
RTVSPropertyOp28
 70
     1
102
RTVSPropertyOp29
 70
     1
102
RTVSPropertyOp30
 70
     1
102
RTVSPropertyOp31
 70
     1
102
RTVSPropertyOp32
 70
     1
102
RTVSPropertyOp33
 70
     1
102
RTVSPropertyOp34
 70
     1
102
RTVSPropertyOp35
 70
     1
102
RTVSPropertyOp36
 70
     1
102
RTVSPropertyOp37
 70
     1
102
RTVSPropertyOp38
 70
     1
102
RTVSPropertyOp39
 70
     1
102
RTVSPropertyOp40
 70
     1
102
RTVSPropertyOp41
 70
     1
102
RTVSPropertyOp42
 70
     1
102
RTVSPropertyOp43
 70
     1
102
RTVSPropertyOp44
 70
     1
102
RTVSPropertyOp45
 70
     1
102
RTVSPropertyOp46
 70
     1
102
RTVSPropertyOp47
 70
     1
102
RTVSPropertyOp48
 70
     1
102
RTVSPropertyOp49
 70
     1
102
RTVSPropertyOp50
 70
     1
102
RTVSPropertyOp51
 70
     0
102
RTVSPropertyOp52
 70
     0
102
RTVSPropertyOp53
 70
     1
102
RTVSPropertyOp54
 70
     1
102
RTVSPropertyOp55
 70
     1
102
RTVSPropertyOp56
 70
     1
102
RTVSPropertyOp57
 70
     1
102
RTVSPost2010Prop28
280
     0
102
RTVSPost2010PropOp28
 70
     1
102
RTVSPost2010Prop29
280
     1
102
RTVSPost2010PropOp29
 70
     1
102
RTVSPost2010Prop30
280
     1
102
RTVSPost2010PropOp30
 70
     1
102
RTVSPost2010Prop31
280
     0
102
RTVSPost2010PropOp31
 70
     1
102
RTVSPost2010Prop32
280
     0
102
RTVSPost2010PropOp32
 70
     1
102
RTVSPost2010Prop33
280
     0
102
RTVSPost2010PropOp33
 70
     1
102
RTVSPost2010Prop34
280
     0
102
RTVSPost2010PropOp34
 70
     1
102
RTVSPost2010Prop35
280
     0
102
RTVSPost2010PropOp35
 70
     1
102
RTVSPost2010Prop36
280
     0
102
RTVSPost2010PropOp36
 70
     1
102
RTVSPost2010Prop37
 90
       50
102
RTVSPost2010PropOp37
 70
     1
102
RTVSPost2010Prop38
140
0.0
102
RTVSPost2010PropOp38
 70
     1
102
RTVSPost2010Prop39
140
1.0
102
RTVSPost2010PropOp39
 70
     1
102
RTVSPost2010Prop40
 90
        0
102
RTVSPost2010PropOp40
 70
     1
102
RTVSPost2010Prop41ColorIndex
 90
       18
102
RTVSPost2010Prop41ColorRGB
 90
        0
102
RTVSPost2010PropOp41
 70
     1
102
RTVSPost2010Prop42
 90
       50
102
RTVSPost2010PropOp42
 70
     1
102
RTVSPost2010Prop43
 90
        3
102
RTVSPost2010PropOp43
 70
     1
102
RTVSPost2010Prop44ColorIndex
 90
        5
102
RTVSPost2010Prop44ColorRGB
 90
      255
102
RTVSPost2010PropOp44
 70
     1
102
RTVSPost2010Prop45
280
     0
102
RTVSPost2010PropOp45
 70
     1
102
RTVSPost2010Prop46
 90
       50
102
RTVSPost2010PropOp46
 70
     1
102
RTVSPost2010Prop47
 90
       50
102
RTVSPost2010PropOp47
 70
     1
102
RTVSPost2010Prop48
 90
       50
102
RTVSPost2010PropOp48
 70
     1
102
RTVSPost2010Prop49
280
     0
102
RTVSPost2010PropOp49
 70
     1
102
RTVSPost2010Prop50
 90
       50
102
RTVSPost2010PropOp50
 70
     1
102
RTVSPost2010Prop51ColorIndex
 90
      256
102
RTVSPost2010Prop51ColorRGB
 90
-16777216
102
RTVSPost2010PropOp51
 70
     0
102
RTVSPost2010Prop52
140
1.0
102
RTVSPost2010PropOp52
 70
     0
102
RTVSPost2010Prop53
 90
        2
102
RTVSPost2010PropOp53
 70
     1
102
RTVSPost2010Prop54
  1
strokes_ogs.tif
102
RTVSPost2010PropOp54
 70
     1
102
RTVSPost2010Prop55
280
     0
102
RTVSPost2010PropOp55
 70
     1
102
RTVSPost2010Prop56
140
1.0
102
RTVSPost2010PropOp56
 70
     1
102
RTVSPost2010Prop57
140
1.0
102
RTVSPost2010PropOp57
 70
     1
  0
XRECORD
  5
25A
102
{ACAD_REACTORS
330
259
102
}
330
259
100
AcDbXrecord
280
     1
102
RTVSPropertyOp0
 70
     1
102
RTVSPropertyOp1
 70
     1
102
RTVSPropertyOp2
 70
     1
102
RTVSPropertyOp3
 70
     1
102
RTVSPropertyOp4
 70
     1
102
RTVSPropertyOp5
 70
     1
102
RTVSPropertyOp6
 70
     1
102
RTVSPropertyOp7
 70
     1
102
RTVSPropertyOp8
 70
     1
102
RTVSPropertyOp9
 70
     1
102
RTVSPropertyOp10
 70
     1
102
RTVSPropertyOp11
 70
     1
102
RTVSPropertyOp12
 70
     1
102
RTVSPropertyOp13
 70
     1
102
RTVSPropertyOp14
 70
     1
102
RTVSPropertyOp15
 70
     1
102
RTVSPropertyOp16
 70
     1
102
RTVSPropertyOp17
 70
     1
102
RTVSPropertyOp18
 70
     1
102
RTVSPropertyOp19
 70
     1
102
RTVSPropertyOp20
 70
     1
102
RTVSPropertyOp21
 70
     1
102
RTVSPropertyOp22
 70
     1
102
RTVSPropertyOp23
 70
     1
102
RTVSPropertyOp24
 70
     1
102
RTVSPropertyOp25
 70
     1
102
RTVSPropertyOp26
 70
     1
102
RTVSPropertyOp27
 70
     1
102
RTVSPropertyOp28
 70
     1
102
RTVSPropertyOp29
 70
     1
102
RTVSPropertyOp30
 70
     1
102
RTVSPropertyOp31
 70
     1
102
RTVSPropertyOp32
 70
     1
102
RTVSPropertyOp33
 70
     1
102
RTVSPropertyOp34
 70
     1
102
RTVSPropertyOp35
 70
     1
102
RTVSPropertyOp36
 70
     1
102
RTVSPropertyOp37
 70
     1
102
RTVSPropertyOp38
 70
     1
102
RTVSPropertyOp39
 70
     1
102
RTVSPropertyOp40
 70
     1
102
RTVSPropertyOp41
 70
     1
102
RTVSPropertyOp42
 70
     1
102
RTVSPropertyOp43
 70
     1
102
RTVSPropertyOp44
 70
     1
102
RTVSPropertyOp45
 70
     1
102
RTVSPropertyOp46
 70
     1
102
RTVSPropertyOp47
 70
     1
102
RTVSPropertyOp48
 70
     1
102
RTVSPropertyOp49
 70
     1
102
RTVSPropertyOp50
 70
     1
102
RTVSPropertyOp51
 70
     0
102
RTVSPropertyOp52
 70
     0
102
RTVSPropertyOp53
 70
     1
102
RTVSPropertyOp54
 70
     1
102
RTVSPropertyOp55
 70
     1
102
RTVSPropertyOp56
 70
     1
102
RTVSPropertyOp57
 70
     1
102
RTVSPost2010Prop28
280
     0
102
RTVSPost2010PropOp28
 70
     1
102
RTVSPost2010Prop29
280
     1
102
RTVSPost2010PropOp29
 70
     1
102
RTVSPost2010Prop30
280
     1
102
RTVSPost2010PropOp30
 70
     1
102
RTVSPost2010Prop31
280
     0
102
RTVSPost2010PropOp31
 70
     1
102
RTVSPost2010Prop32
280
     0
102
RTVSPost2010PropOp32
 70
     1
102
RTVSPost2010Prop33
280
     0
102
RTVSPost2010PropOp33
 70
     1
102
RTVSPost2010Prop34
280
     0
102
RTVSPost2010PropOp34
 70
     1
102
RTVSPost2010Prop35
280
     0
102
RTVSPost2010PropOp35
 70
     1
102
RTVSPost2010Prop36
280
     0
102
RTVSPost2010PropOp36
 70
     1
102
RTVSPost2010Prop37
 90
       50
102
RTVSPost2010PropOp37
 70
     1
102
RTVSPost2010Prop38
140
0.0
102
RTVSPost2010PropOp38
 70
     1
102
RTVSPost2010Prop39
140
1.0
102
RTVSPost2010PropOp39
 70
     1
102
RTVSPost2010Prop40
 90
        0
102
RTVSPost2010PropOp40
 70
     1
102
RTVSPost2010Prop41ColorIndex
 90
       18
102
RTVSPost2010Prop41ColorRGB
 90
        0
102
RTVSPost2010PropOp41
 70
     1
102
RTVSPost2010Prop42
 90
       50
102
RTVSPost2010PropOp42
 70
     1
102
RTVSPost2010Prop43
 90
        3
102
RTVSPost2010PropOp43
 70
     1
102
RTVSPost2010Prop44ColorIndex
 90
        5
102
RTVSPost2010Prop44ColorRGB
 90
      255
102
RTVSPost2010PropOp44
 70
     1
102
RTVSPost2010Prop45
280
     0
102
RTVSPost2010PropOp45
 70
     1
102
RTVSPost2010Prop46
 90
       50
102
RTVSPost2010PropOp46
 70
     1
102
RTVSPost2010Prop47
 90
       50
102
RTVSPost2010PropOp47
 70
     1
102
RTVSPost2010Prop48
 90
       50
102
RTVSPost2010PropOp48
 70
     1
102
RTVSPost2010Prop49
280
     0
102
RTVSPost2010PropOp49
 70
     1
102
RTVSPost2010Prop50
 90
       50
102
RTVSPost2010PropOp50
 70
     1
102
RTVSPost2010Prop51ColorIndex
 90
      256
102
RTVSPost2010Prop51ColorRGB
 90
-16777216
102
RTVSPost2010PropOp51
 70
     0
102
RTVSPost2010Prop52
140
1.0
102
RTVSPost2010PropOp52
 70
     0
102
RTVSPost2010Prop53
 90
        2
102
RTVSPost2010PropOp53
 70
     1
102
RTVSPost2010Prop54
  1
strokes_ogs.tif
102
RTVSPost2010PropOp54
 70
     1
102
RTVSPost2010Prop55
280
     0
102
RTVSPost2010PropOp55
 70
     1
102
RTVSPost2010Prop56
140
1.0
102
RTVSPost2010PropOp56
 70
     1
102
RTVSPost2010Prop57
140
1.0
102
RTVSPost2010PropOp57
 70
     1
  0
XRECORD
  5
26A
102
{ACAD_REACTORS
330
269
102
}
330
269
100
AcDbXrecord
280
     1
102
RTVSPropertyOp0
 70
     0
102
RTVSPropertyOp1
 70
     0
102
RTVSPropertyOp2
 70
     0
102
RTVSPropertyOp3
 70
     0
102
RTVSPropertyOp4
 70
     0
102
RTVSPropertyOp5
 70
     0
102
RTVSPropertyOp6
 70
     0
102
RTVSPropertyOp7
 70
     0
102
RTVSPropertyOp8
 70
     0
102
RTVSPropertyOp9
 70
     0
102
RTVSPropertyOp10
 70
     0
102
RTVSPropertyOp11
 70
     0
102
RTVSPropertyOp12
 70
     0
102
RTVSPropertyOp13
 70
     0
102
RTVSPropertyOp14
 70
     2
102
RTVSPropertyOp15
 70
     0
102
RTVSPropertyOp16
 70
     0
102
RTVSPropertyOp17
 70
     0
102
RTVSPropertyOp18
 70
     0
102
RTVSPropertyOp19
 70
     0
102
RTVSPropertyOp20
 70
     0
102
RTVSPropertyOp21
 70
     0
102
RTVSPropertyOp22
 70
     0
102
RTVSPropertyOp23
 70
     0
102
RTVSPropertyOp24
 70
     0
102
RTVSPropertyOp25
 70
     0
102
RTVSPropertyOp26
 70
     0
102
RTVSPropertyOp27
 70
     0
102
RTVSPropertyOp28
 70
     0
102
RTVSPropertyOp29
 70
     0
102
RTVSPropertyOp30
 70
     0
102
RTVSPropertyOp31
 70
     0
102
RTVSPropertyOp32
 70
     0
102
RTVSPropertyOp33
 70
     0
102
RTVSPropertyOp34
 70
     0
102
RTVSPropertyOp35
 70
     0
102
RTVSPropertyOp36
 70
     0
102
RTVSPropertyOp37
 70
     0
102
RTVSPropertyOp38
 70
     0
102
RTVSPropertyOp39
 70
     0
102
RTVSPropertyOp40
 70
     0
102
RTVSPropertyOp41
 70
     0
102
RTVSPropertyOp42
 70
     0
102
RTVSPropertyOp43
 70
     0
102
RTVSPropertyOp44
 70
     0
102
RTVSPropertyOp45
 70
     0
102
RTVSPropertyOp46
 70
     0
102
RTVSPropertyOp47
 70
     0
102
RTVSPropertyOp48
 70
     0
102
RTVSPropertyOp49
 70
     0
102
RTVSPropertyOp50
 70
     0
102
RTVSPropertyOp51
 70
     0
102
RTVSPropertyOp52
 70
     0
102
RTVSPropertyOp53
 70
     0
102
RTVSPropertyOp54
 70
     0
102
RTVSPropertyOp55
 70
     0
102
RTVSPropertyOp56
 70
     0
102
RTVSPropertyOp57
 70
     0
102
RTVSPost2010Prop28
280
     0
102
RTVSPost2010PropOp28
 70
     0
102
RTVSPost2010Prop29
280
     1
102
RTVSPost2010PropOp29
 70
     0
102
RTVSPost2010Prop30
280
     1
102
RTVSPost2010PropOp30
 70
     0
102
RTVSPost2010Prop31
280
     0
102
RTVSPost2010PropOp31
 70
     0
102
RTVSPost2010Prop32
280
     0
102
RTVSPost2010PropOp32
 70
     0
102
RTVSPost2010Prop33
280
     0
102
RTVSPost2010PropOp33
 70
     0
102
RTVSPost2010Prop34
280
     0
102
RTVSPost2010PropOp34
 70
     0
102
RTVSPost2010Prop35
280
     0
102
RTVSPost2010PropOp35
 70
     0
102
RTVSPost2010Prop36
280
     0
102
RTVSPost2010PropOp36
 70
     0
102
RTVSPost2010Prop37
 90
       50
102
RTVSPost2010PropOp37
 70
     0
102
RTVSPost2010Prop38
140
0.0
102
RTVSPost2010PropOp38
 70
     0
102
RTVSPost2010Prop39
140
1.0
102
RTVSPost2010PropOp39
 70
     0
102
RTVSPost2010Prop40
 90
        0
102
RTVSPost2010PropOp40
 70
     0
102
RTVSPost2010Prop41ColorIndex
 90
       18
102
RTVSPost2010Prop41ColorRGB
 90
        0
102
RTVSPost2010PropOp41
 70
     0
102
RTVSPost2010Prop42
 90
       50
102
RTVSPost2010PropOp42
 70
     0
102
RTVSPost2010Prop43
 90
        3
102
RTVSPost2010PropOp43
 70
     0
102
RTVSPost2010Prop44ColorIndex
 90
        5
102
RTVSPost2010Prop44ColorRGB
 90
      255
102
RTVSPost2010PropOp44
 70
     0
102
RTVSPost2010Prop45
280
     0
102
RTVSPost2010PropOp45
 70
     0
102
RTVSPost2010Prop46
 90
       50
102
RTVSPost2010PropOp46
 70
     0
102
RTVSPost2010Prop47
 90
       50
102
RTVSPost2010PropOp47
 70
     0
102
RTVSPost2010Prop48
 90
       50
102
RTVSPost2010PropOp48
 70
     0
102
RTVSPost2010Prop49
280
     0
102
RTVSPost2010PropOp49
 70
     0
102
RTVSPost2010Prop50
 90
       50
102
RTVSPost2010PropOp50
 70
     0
102
RTVSPost2010Prop51ColorIndex
 90
      256
102
RTVSPost2010Prop51ColorRGB
 90
-16777216
102
RTVSPost2010PropOp51
 70
     0
102
RTVSPost2010Prop52
140
1.0
102
RTVSPost2010PropOp52
 70
     0
102
RTVSPost2010Prop53
 90
        2
102
RTVSPost2010PropOp53
 70
     0
102
RTVSPost2010Prop54
  1
strokes_ogs.tif
102
RTVSPost2010PropOp54
 70
     0
102
RTVSPost2010Prop55
280
     0
102
RTVSPost2010PropOp55
 70
     0
102
RTVSPost2010Prop56
140
1.0
102
RTVSPost2010PropOp56
 70
     0
102
RTVSPost2010Prop57
140
1.0
102
RTVSPost2010PropOp57
 70
     0
  0
XRECORD
  5
262
102
{ACAD_REACTORS
330
261
102
}
330
261
100
AcDbXrecord
280
     1
102
RTVSPropertyOp0
 70
     1
102
RTVSPropertyOp1
 70
     1
102
RTVSPropertyOp2
 70
     1
102
RTVSPropertyOp3
 70
     1
102
RTVSPropertyOp4
 70
     1
102
RTVSPropertyOp5
 70
     1
102
RTVSPropertyOp6
 70
     1
102
RTVSPropertyOp7
 70
     1
102
RTVSPropertyOp8
 70
     1
102
RTVSPropertyOp9
 70
     1
102
RTVSPropertyOp10
 70
     1
102
RTVSPropertyOp11
 70
     1
102
RTVSPropertyOp12
 70
     1
102
RTVSPropertyOp13
 70
     1
102
RTVSPropertyOp14
 70
     1
102
RTVSPropertyOp15
 70
     1
102
RTVSPropertyOp16
 70
     1
102
RTVSPropertyOp17
 70
     1
102
RTVSPropertyOp18
 70
     1
102
RTVSPropertyOp19
 70
     1
102
RTVSPropertyOp20
 70
     1
102
RTVSPropertyOp21
 70
     1
102
RTVSPropertyOp22
 70
     1
102
RTVSPropertyOp23
 70
     1
102
RTVSPropertyOp24
 70
     1
102
RTVSPropertyOp25
 70
     1
102
RTVSPropertyOp26
 70
     1
102
RTVSPropertyOp27
 70
     1
102
RTVSPropertyOp28
 70
     1
102
RTVSPropertyOp29
 70
     1
102
RTVSPropertyOp30
 70
     1
102
RTVSPropertyOp31
 70
     1
102
RTVSPropertyOp32
 70
     1
102
RTVSPropertyOp33
 70
     1
102
RTVSPropertyOp34
 70
     1
102
RTVSPropertyOp35
 70
     1
102
RTVSPropertyOp36
 70
     1
102
RTVSPropertyOp37
 70
     1
102
RTVSPropertyOp38
 70
     1
102
RTVSPropertyOp39
 70
     1
102
RTVSPropertyOp40
 70
     1
102
RTVSPropertyOp41
 70
     1
102
RTVSPropertyOp42
 70
     1
102
RTVSPropertyOp43
 70
     1
102
RTVSPropertyOp44
 70
     1
102
RTVSPropertyOp45
 70
     1
102
RTVSPropertyOp46
 70
     1
102
RTVSPropertyOp47
 70
     1
102
RTVSPropertyOp48
 70
     1
102
RTVSPropertyOp49
 70
     1
102
RTVSPropertyOp50
 70
     1
102
RTVSPropertyOp51
 70
     0
102
RTVSPropertyOp52
 70
     0
102
RTVSPropertyOp53
 70
     1
102
RTVSPropertyOp54
 70
     1
102
RTVSPropertyOp55
 70
     1
102
RTVSPropertyOp56
 70
     1
102
RTVSPropertyOp57
 70
     1
102
RTVSPost2010Prop28
280
     0
102
RTVSPost2010PropOp28
 70
     1
102
RTVSPost2010Prop29
280
     1
102
RTVSPost2010PropOp29
 70
     1
102
RTVSPost2010Prop30
280
     1
102
RTVSPost2010PropOp30
 70
     1
102
RTVSPost2010Prop31
280
     0
102
RTVSPost2010PropOp31
 70
     1
102
RTVSPost2010Prop32
280
     0
102
RTVSPost2010PropOp32
 70
     1
102
RTVSPost2010Prop33
280
     0
102
RTVSPost2010PropOp33
 70
     1
102
RTVSPost2010Prop34
280
     0
102
RTVSPost2010PropOp34
 70
     1
102
RTVSPost2010Prop35
280
     0
102
RTVSPost2010PropOp35
 70
     1
102
RTVSPost2010Prop36
280
     0
102
RTVSPost2010PropOp36
 70
     1
102
RTVSPost2010Prop37
 90
       50
102
RTVSPost2010PropOp37
 70
     1
102
RTVSPost2010Prop38
140
0.0
102
RTVSPost2010PropOp38
 70
     1
102
RTVSPost2010Prop39
140
1.0
102
RTVSPost2010PropOp39
 70
     1
102
RTVSPost2010Prop40
 90
        0
102
RTVSPost2010PropOp40
 70
     1
102
RTVSPost2010Prop41ColorIndex
 90
       18
102
RTVSPost2010Prop41ColorRGB
 90
        0
102
RTVSPost2010PropOp41
 70
     1
102
RTVSPost2010Prop42
 90
       50
102
RTVSPost2010PropOp42
 70
     1
102
RTVSPost2010Prop43
 90
        3
102
RTVSPost2010PropOp43
 70
     1
102
RTVSPost2010Prop44ColorIndex
 90
        5
102
RTVSPost2010Prop44ColorRGB
 90
      255
102
RTVSPost2010PropOp44
 70
     1
102
RTVSPost2010Prop45
280
     0
102
RTVSPost2010PropOp45
 70
     1
102
RTVSPost2010Prop46
 90
       50
102
RTVSPost2010PropOp46
 70
     1
102
RTVSPost2010Prop47
 90
       50
102
RTVSPost2010PropOp47
 70
     1
102
RTVSPost2010Prop48
 90
       50
102
RTVSPost2010PropOp48
 70
     1
102
RTVSPost2010Prop49
280
     0
102
RTVSPost2010PropOp49
 70
     1
102
RTVSPost2010Prop50
 90
       50
102
RTVSPost2010PropOp50
 70
     1
102
RTVSPost2010Prop51ColorIndex
 90
      256
102
RTVSPost2010Prop51ColorRGB
 90
-16777216
102
RTVSPost2010PropOp51
 70
     0
102
RTVSPost2010Prop52
140
1.0
102
RTVSPost2010PropOp52
 70
     0
102
RTVSPost2010Prop53
 90
        2
102
RTVSPost2010PropOp53
 70
     1
102
RTVSPost2010Prop54
  1
strokes_ogs.tif
102
RTVSPost2010PropOp54
 70
     1
102
RTVSPost2010Prop55
280
     0
102
RTVSPost2010PropOp55
 70
     1
102
RTVSPost2010Prop56
140
1.0
102
RTVSPost2010PropOp56
 70
     1
102
RTVSPost2010Prop57
140
1.0
102
RTVSPost2010PropOp57
 70
     1
  0
XRECORD
  5
246
102
{ACAD_REACTORS
330
245
102
}
330
245
100
AcDbXrecord
280
     1
102
RTVSPropertyOp0
 70
     1
102
RTVSPropertyOp1
 70
     1
102
RTVSPropertyOp2
 70
     1
102
RTVSPropertyOp3
 70
     1
102
RTVSPropertyOp4
 70
     1
102
RTVSPropertyOp5
 70
     1
102
RTVSPropertyOp6
 70
     1
102
RTVSPropertyOp7
 70
     1
102
RTVSPropertyOp8
 70
     1
102
RTVSPropertyOp9
 70
     1
102
RTVSPropertyOp10
 70
     1
102
RTVSPropertyOp11
 70
     1
102
RTVSPropertyOp12
 70
     1
102
RTVSPropertyOp13
 70
     1
102
RTVSPropertyOp14
 70
     1
102
RTVSPropertyOp15
 70
     1
102
RTVSPropertyOp16
 70
     1
102
RTVSPropertyOp17
 70
     1
102
RTVSPropertyOp18
 70
     1
102
RTVSPropertyOp19
 70
     1
102
RTVSPropertyOp20
 70
     1
102
RTVSPropertyOp21
 70
     1
102
RTVSPropertyOp22
 70
     1
102
RTVSPropertyOp23
 70
     1
102
RTVSPropertyOp24
 70
     1
102
RTVSPropertyOp25
 70
     1
102
RTVSPropertyOp26
 70
     1
102
RTVSPropertyOp27
 70
     1
102
RTVSPropertyOp28
 70
     1
102
RTVSPropertyOp29
 70
     1
102
RTVSPropertyOp30
 70
     1
102
RTVSPropertyOp31
 70
     1
102
RTVSPropertyOp32
 70
     1
102
RTVSPropertyOp33
 70
     1
102
RTVSPropertyOp34
 70
     1
102
RTVSPropertyOp35
 70
     1
102
RTVSPropertyOp36
 70
     1
102
RTVSPropertyOp37
 70
     1
102
RTVSPropertyOp38
 70
     1
102
RTVSPropertyOp39
 70
     1
102
RTVSPropertyOp40
 70
     1
102
RTVSPropertyOp41
 70
     1
102
RTVSPropertyOp42
 70
     1
102
RTVSPropertyOp43
 70
     1
102
RTVSPropertyOp44
 70
     1
102
RTVSPropertyOp45
 70
     1
102
RTVSPropertyOp46
 70
     1
102
RTVSPropertyOp47
 70
     1
102
RTVSPropertyOp48
 70
     1
102
RTVSPropertyOp49
 70
     1
102
RTVSPropertyOp50
 70
     1
102
RTVSPropertyOp51
 70
     0
102
RTVSPropertyOp52
 70
     0
102
RTVSPropertyOp53
 70
     1
102
RTVSPropertyOp54
 70
     1
102
RTVSPropertyOp55
 70
     1
102
RTVSPropertyOp56
 70
     1
102
RTVSPropertyOp57
 70
     1
102
RTVSPost2010Prop28
280
     0
102
RTVSPost2010PropOp28
 70
     1
102
RTVSPost2010Prop29
280
     1
102
RTVSPost2010PropOp29
 70
     1
102
RTVSPost2010Prop30
280
     1
102
RTVSPost2010PropOp30
 70
     1
102
RTVSPost2010Prop31
280
     0
102
RTVSPost2010PropOp31
 70
     1
102
RTVSPost2010Prop32
280
     0
102
RTVSPost2010PropOp32
 70
     1
102
RTVSPost2010Prop33
280
     0
102
RTVSPost2010PropOp33
 70
     1
102
RTVSPost2010Prop34
280
     0
102
RTVSPost2010PropOp34
 70
     1
102
RTVSPost2010Prop35
280
     0
102
RTVSPost2010PropOp35
 70
     1
102
RTVSPost2010Prop36
280
     0
102
RTVSPost2010PropOp36
 70
     1
102
RTVSPost2010Prop37
 90
       50
102
RTVSPost2010PropOp37
 70
     1
102
RTVSPost2010Prop38
140
0.0
102
RTVSPost2010PropOp38
 70
     1
102
RTVSPost2010Prop39
140
1.0
102
RTVSPost2010PropOp39
 70
     1
102
RTVSPost2010Prop40
 90
        0
102
RTVSPost2010PropOp40
 70
     1
102
RTVSPost2010Prop41ColorIndex
 90
       18
102
RTVSPost2010Prop41ColorRGB
 90
        0
102
RTVSPost2010PropOp41
 70
     1
102
RTVSPost2010Prop42
 90
       50
102
RTVSPost2010PropOp42
 70
     1
102
RTVSPost2010Prop43
 90
        3
102
RTVSPost2010PropOp43
 70
     1
102
RTVSPost2010Prop44ColorIndex
 90
        5
102
RTVSPost2010Prop44ColorRGB
 90
      255
102
RTVSPost2010PropOp44
 70
     1
102
RTVSPost2010Prop45
280
     0
102
RTVSPost2010PropOp45
 70
     1
102
RTVSPost2010Prop46
 90
       50
102
RTVSPost2010PropOp46
 70
     1
102
RTVSPost2010Prop47
 90
       50
102
RTVSPost2010PropOp47
 70
     1
102
RTVSPost2010Prop48
 90
       50
102
RTVSPost2010PropOp48
 70
     1
102
RTVSPost2010Prop49
280
     0
102
RTVSPost2010PropOp49
 70
     1
102
RTVSPost2010Prop50
 90
       50
102
RTVSPost2010PropOp50
 70
     1
102
RTVSPost2010Prop51ColorIndex
 90
      256
102
RTVSPost2010Prop51ColorRGB
 90
-16777216
102
RTVSPost2010PropOp51
 70
     0
102
RTVSPost2010Prop52
140
1.0
102
RTVSPost2010PropOp52
 70
     0
102
RTVSPost2010Prop53
 90
        2
102
RTVSPost2010PropOp53
 70
     1
102
RTVSPost2010Prop54
  1
strokes_ogs.tif
102
RTVSPost2010PropOp54
 70
     1
102
RTVSPost2010Prop55
280
     0
102
RTVSPost2010PropOp55
 70
     1
102
RTVSPost2010Prop56
140
1.0
102
RTVSPost2010PropOp56
 70
     1
102
RTVSPost2010Prop57
140
1.0
102
RTVSPost2010PropOp57
 70
     1
  0
XRECORD
  5
248
102
{ACAD_REACTORS
330
247
102
}
330
247
100
AcDbXrecord
280
     1
102
RTVSPropertyOp0
 70
     1
102
RTVSPropertyOp1
 70
     1
102
RTVSPropertyOp2
 70
     1
102
RTVSPropertyOp3
 70
     1
102
RTVSPropertyOp4
 70
     1
102
RTVSPropertyOp5
 70
     1
102
RTVSPropertyOp6
 70
     1
102
RTVSPropertyOp7
 70
     1
102
RTVSPropertyOp8
 70
     1
102
RTVSPropertyOp9
 70
     1
102
RTVSPropertyOp10
 70
     1
102
RTVSPropertyOp11
 70
     1
102
RTVSPropertyOp12
 70
     1
102
RTVSPropertyOp13
 70
     1
102
RTVSPropertyOp14
 70
     1
102
RTVSPropertyOp15
 70
     1
102
RTVSPropertyOp16
 70
     1
102
RTVSPropertyOp17
 70
     1
102
RTVSPropertyOp18
 70
     1
102
RTVSPropertyOp19
 70
     1
102
RTVSPropertyOp20
 70
     1
102
RTVSPropertyOp21
 70
     1
102
RTVSPropertyOp22
 70
     1
102
RTVSPropertyOp23
 70
     1
102
RTVSPropertyOp24
 70
     1
102
RTVSPropertyOp25
 70
     1
102
RTVSPropertyOp26
 70
     1
102
RTVSPropertyOp27
 70
     1
102
RTVSPropertyOp28
 70
     1
102
RTVSPropertyOp29
 70
     1
102
RTVSPropertyOp30
 70
     1
102
RTVSPropertyOp31
 70
     1
102
RTVSPropertyOp32
 70
     1
102
RTVSPropertyOp33
 70
     1
102
RTVSPropertyOp34
 70
     1
102
RTVSPropertyOp35
 70
     1
102
RTVSPropertyOp36
 70
     1
102
RTVSPropertyOp37
 70
     1
102
RTVSPropertyOp38
 70
     1
102
RTVSPropertyOp39
 70
     1
102
RTVSPropertyOp40
 70
     1
102
RTVSPropertyOp41
 70
     1
102
RTVSPropertyOp42
 70
     1
102
RTVSPropertyOp43
 70
     1
102
RTVSPropertyOp44
 70
     1
102
RTVSPropertyOp45
 70
     1
102
RTVSPropertyOp46
 70
     1
102
RTVSPropertyOp47
 70
     1
102
RTVSPropertyOp48
 70
     1
102
RTVSPropertyOp49
 70
     1
102
RTVSPropertyOp50
 70
     1
102
RTVSPropertyOp51
 70
     0
102
RTVSPropertyOp52
 70
     0
102
RTVSPropertyOp53
 70
     1
102
RTVSPropertyOp54
 70
     1
102
RTVSPropertyOp55
 70
     1
102
RTVSPropertyOp56
 70
     1
102
RTVSPropertyOp57
 70
     1
102
RTVSPost2010Prop28
280
     0
102
RTVSPost2010PropOp28
 70
     1
102
RTVSPost2010Prop29
280
     1
102
RTVSPost2010PropOp29
 70
     1
102
RTVSPost2010Prop30
280
     1
102
RTVSPost2010PropOp30
 70
     1
102
RTVSPost2010Prop31
280
     0
102
RTVSPost2010PropOp31
 70
     1
102
RTVSPost2010Prop32
280
     0
102
RTVSPost2010PropOp32
 70
     1
102
RTVSPost2010Prop33
280
     0
102
RTVSPost2010PropOp33
 70
     1
102
RTVSPost2010Prop34
280
     0
102
RTVSPost2010PropOp34
 70
     1
102
RTVSPost2010Prop35
280
     0
102
RTVSPost2010PropOp35
 70
     1
102
RTVSPost2010Prop36
280
     0
102
RTVSPost2010PropOp36
 70
     1
102
RTVSPost2010Prop37
 90
       50
102
RTVSPost2010PropOp37
 70
     1
102
RTVSPost2010Prop38
140
0.0
102
RTVSPost2010PropOp38
 70
     1
102
RTVSPost2010Prop39
140
1.0
102
RTVSPost2010PropOp39
 70
     1
102
RTVSPost2010Prop40
 90
        0
102
RTVSPost2010PropOp40
 70
     1
102
RTVSPost2010Prop41ColorIndex
 90
       18
102
RTVSPost2010Prop41ColorRGB
 90
        0
102
RTVSPost2010PropOp41
 70
     1
102
RTVSPost2010Prop42
 90
       50
102
RTVSPost2010PropOp42
 70
     1
102
RTVSPost2010Prop43
 90
        3
102
RTVSPost2010PropOp43
 70
     1
102
RTVSPost2010Prop44ColorIndex
 90
        5
102
RTVSPost2010Prop44ColorRGB
 90
      255
102
RTVSPost2010PropOp44
 70
     1
102
RTVSPost2010Prop45
280
     0
102
RTVSPost2010PropOp45
 70
     1
102
RTVSPost2010Prop46
 90
       50
102
RTVSPost2010PropOp46
 70
     1
102
RTVSPost2010Prop47
 90
       50
102
RTVSPost2010PropOp47
 70
     1
102
RTVSPost2010Prop48
 90
       50
102
RTVSPost2010PropOp48
 70
     1
102
RTVSPost2010Prop49
280
     0
102
RTVSPost2010PropOp49
 70
     1
102
RTVSPost2010Prop50
 90
       50
102
RTVSPost2010PropOp50
 70
     1
102
RTVSPost2010Prop51ColorIndex
 90
      256
102
RTVSPost2010Prop51ColorRGB
 90
-16777216
102
RTVSPost2010PropOp51
 70
     0
102
RTVSPost2010Prop52
140
1.0
102
RTVSPost2010PropOp52
 70
     0
102
RTVSPost2010Prop53
 90
        2
102
RTVSPost2010PropOp53
 70
     1
102
RTVSPost2010Prop54
  1
strokes_ogs.tif
102
RTVSPost2010PropOp54
 70
     1
102
RTVSPost2010Prop55
280
     0
102
RTVSPost2010PropOp55
 70
     1
102
RTVSPost2010Prop56
140
1.0
102
RTVSPost2010PropOp56
 70
     1
102
RTVSPost2010Prop57
140
1.0
102
RTVSPost2010PropOp57
 70
     1
  0
XRECORD
  5
24A
102
{ACAD_REACTORS
330
249
102
}
330
249
100
AcDbXrecord
280
     1
102
RTVSPropertyOp0
 70
     1
102
RTVSPropertyOp1
 70
     1
102
RTVSPropertyOp2
 70
     1
102
RTVSPropertyOp3
 70
     1
102
RTVSPropertyOp4
 70
     1
102
RTVSPropertyOp5
 70
     1
102
RTVSPropertyOp6
 70
     1
102
RTVSPropertyOp7
 70
     1
102
RTVSPropertyOp8
 70
     1
102
RTVSPropertyOp9
 70
     1
102
RTVSPropertyOp10
 70
     1
102
RTVSPropertyOp11
 70
     1
102
RTVSPropertyOp12
 70
     1
102
RTVSPropertyOp13
 70
     1
102
RTVSPropertyOp14
 70
     1
102
RTVSPropertyOp15
 70
     1
102
RTVSPropertyOp16
 70
     1
102
RTVSPropertyOp17
 70
     1
102
RTVSPropertyOp18
 70
     1
102
RTVSPropertyOp19
 70
     1
102
RTVSPropertyOp20
 70
     1
102
RTVSPropertyOp21
 70
     1
102
RTVSPropertyOp22
 70
     1
102
RTVSPropertyOp23
 70
     1
102
RTVSPropertyOp24
 70
     1
102
RTVSPropertyOp25
 70
     1
102
RTVSPropertyOp26
 70
     1
102
RTVSPropertyOp27
 70
     1
102
RTVSPropertyOp28
 70
     1
102
RTVSPropertyOp29
 70
     1
102
RTVSPropertyOp30
 70
     1
102
RTVSPropertyOp31
 70
     1
102
RTVSPropertyOp32
 70
     1
102
RTVSPropertyOp33
 70
     1
102
RTVSPropertyOp34
 70
     1
102
RTVSPropertyOp35
 70
     1
102
RTVSPropertyOp36
 70
     1
102
RTVSPropertyOp37
 70
     1
102
RTVSPropertyOp38
 70
     1
102
RTVSPropertyOp39
 70
     1
102
RTVSPropertyOp40
 70
     1
102
RTVSPropertyOp41
 70
     1
102
RTVSPropertyOp42
 70
     1
102
RTVSPropertyOp43
 70
     1
102
RTVSPropertyOp44
 70
     1
102
RTVSPropertyOp45
 70
     1
102
RTVSPropertyOp46
 70
     1
102
RTVSPropertyOp47
 70
     1
102
RTVSPropertyOp48
 70
     1
102
RTVSPropertyOp49
 70
     1
102
RTVSPropertyOp50
 70
     1
102
RTVSPropertyOp51
 70
     0
102
RTVSPropertyOp52
 70
     0
102
RTVSPropertyOp53
 70
     1
102
RTVSPropertyOp54
 70
     1
102
RTVSPropertyOp55
 70
     1
102
RTVSPropertyOp56
 70
     1
102
RTVSPropertyOp57
 70
     1
102
RTVSPost2010Prop28
280
     0
102
RTVSPost2010PropOp28
 70
     1
102
RTVSPost2010Prop29
280
     1
102
RTVSPost2010PropOp29
 70
     1
102
RTVSPost2010Prop30
280
     1
102
RTVSPost2010PropOp30
 70
     1
102
RTVSPost2010Prop31
280
     0
102
RTVSPost2010PropOp31
 70
     1
102
RTVSPost2010Prop32
280
     0
102
RTVSPost2010PropOp32
 70
     1
102
RTVSPost2010Prop33
280
     0
102
RTVSPost2010PropOp33
 70
     1
102
RTVSPost2010Prop34
280
     0
102
RTVSPost2010PropOp34
 70
     1
102
RTVSPost2010Prop35
280
     0
102
RTVSPost2010PropOp35
 70
     1
102
RTVSPost2010Prop36
280
     0
102
RTVSPost2010PropOp36
 70
     1
102
RTVSPost2010Prop37
 90
       50
102
RTVSPost2010PropOp37
 70
     1
102
RTVSPost2010Prop38
140
0.0
102
RTVSPost2010PropOp38
 70
     1
102
RTVSPost2010Prop39
140
1.0
102
RTVSPost2010PropOp39
 70
     1
102
RTVSPost2010Prop40
 90
        0
102
RTVSPost2010PropOp40
 70
     1
102
RTVSPost2010Prop41ColorIndex
 90
       18
102
RTVSPost2010Prop41ColorRGB
 90
        0
102
RTVSPost2010PropOp41
 70
     1
102
RTVSPost2010Prop42
 90
       50
102
RTVSPost2010PropOp42
 70
     1
102
RTVSPost2010Prop43
 90
        3
102
RTVSPost2010PropOp43
 70
     1
102
RTVSPost2010Prop44ColorIndex
 90
        5
102
RTVSPost2010Prop44ColorRGB
 90
      255
102
RTVSPost2010PropOp44
 70
     1
102
RTVSPost2010Prop45
280
     0
102
RTVSPost2010PropOp45
 70
     1
102
RTVSPost2010Prop46
 90
       50
102
RTVSPost2010PropOp46
 70
     1
102
RTVSPost2010Prop47
 90
       50
102
RTVSPost2010PropOp47
 70
     1
102
RTVSPost2010Prop48
 90
       50
102
RTVSPost2010PropOp48
 70
     1
102
RTVSPost2010Prop49
280
     0
102
RTVSPost2010PropOp49
 70
     1
102
RTVSPost2010Prop50
 90
       50
102
RTVSPost2010PropOp50
 70
     1
102
RTVSPost2010Prop51ColorIndex
 90
      256
102
RTVSPost2010Prop51ColorRGB
 90
-16777216
102
RTVSPost2010PropOp51
 70
     0
102
RTVSPost2010Prop52
140
1.0
102
RTVSPost2010PropOp52
 70
     0
102
RTVSPost2010Prop53
 90
        2
102
RTVSPost2010PropOp53
 70
     1
102
RTVSPost2010Prop54
  1
strokes_ogs.tif
102
RTVSPost2010PropOp54
 70
     1
102
RTVSPost2010Prop55
280
     0
102
RTVSPost2010PropOp55
 70
     1
102
RTVSPost2010Prop56
140
1.0
102
RTVSPost2010PropOp56
 70
     1
102
RTVSPost2010Prop57
140
1.0
102
RTVSPost2010PropOp57
 70
     1
  0
XRECORD
  5
24C
102
{ACAD_REACTORS
330
24B
102
}
330
24B
100
AcDbXrecord
280
     1
102
RTVSPropertyOp0
 70
     1
102
RTVSPropertyOp1
 70
     1
102
RTVSPropertyOp2
 70
     1
102
RTVSPropertyOp3
 70
     1
102
RTVSPropertyOp4
 70
     1
102
RTVSPropertyOp5
 70
     1
102
RTVSPropertyOp6
 70
     1
102
RTVSPropertyOp7
 70
     1
102
RTVSPropertyOp8
 70
     1
102
RTVSPropertyOp9
 70
     1
102
RTVSPropertyOp10
 70
     1
102
RTVSPropertyOp11
 70
     1
102
RTVSPropertyOp12
 70
     1
102
RTVSPropertyOp13
 70
     1
102
RTVSPropertyOp14
 70
     1
102
RTVSPropertyOp15
 70
     1
102
RTVSPropertyOp16
 70
     1
102
RTVSPropertyOp17
 70
     1
102
RTVSPropertyOp18
 70
     1
102
RTVSPropertyOp19
 70
     1
102
RTVSPropertyOp20
 70
     1
102
RTVSPropertyOp21
 70
     1
102
RTVSPropertyOp22
 70
     1
102
RTVSPropertyOp23
 70
     1
102
RTVSPropertyOp24
 70
     1
102
RTVSPropertyOp25
 70
     1
102
RTVSPropertyOp26
 70
     1
102
RTVSPropertyOp27
 70
     1
102
RTVSPropertyOp28
 70
     1
102
RTVSPropertyOp29
 70
     1
102
RTVSPropertyOp30
 70
     1
102
RTVSPropertyOp31
 70
     1
102
RTVSPropertyOp32
 70
     1
102
RTVSPropertyOp33
 70
     1
102
RTVSPropertyOp34
 70
     1
102
RTVSPropertyOp35
 70
     1
102
RTVSPropertyOp36
 70
     1
102
RTVSPropertyOp37
 70
     1
102
RTVSPropertyOp38
 70
     1
102
RTVSPropertyOp39
 70
     1
102
RTVSPropertyOp40
 70
     1
102
RTVSPropertyOp41
 70
     1
102
RTVSPropertyOp42
 70
     1
102
RTVSPropertyOp43
 70
     1
102
RTVSPropertyOp44
 70
     1
102
RTVSPropertyOp45
 70
     1
102
RTVSPropertyOp46
 70
     1
102
RTVSPropertyOp47
 70
     1
102
RTVSPropertyOp48
 70
     1
102
RTVSPropertyOp49
 70
     1
102
RTVSPropertyOp50
 70
     1
102
RTVSPropertyOp51
 70
     0
102
RTVSPropertyOp52
 70
     0
102
RTVSPropertyOp53
 70
     1
102
RTVSPropertyOp54
 70
     1
102
RTVSPropertyOp55
 70
     1
102
RTVSPropertyOp56
 70
     1
102
RTVSPropertyOp57
 70
     1
102
RTVSPost2010Prop28
280
     0
102
RTVSPost2010PropOp28
 70
     1
102
RTVSPost2010Prop29
280
     1
102
RTVSPost2010PropOp29
 70
     1
102
RTVSPost2010Prop30
280
     1
102
RTVSPost2010PropOp30
 70
     1
102
RTVSPost2010Prop31
280
     0
102
RTVSPost2010PropOp31
 70
     1
102
RTVSPost2010Prop32
280
     0
102
RTVSPost2010PropOp32
 70
     1
102
RTVSPost2010Prop33
280
     0
102
RTVSPost2010PropOp33
 70
     1
102
RTVSPost2010Prop34
280
     0
102
RTVSPost2010PropOp34
 70
     1
102
RTVSPost2010Prop35
280
     0
102
RTVSPost2010PropOp35
 70
     1
102
RTVSPost2010Prop36
280
     0
102
RTVSPost2010PropOp36
 70
     1
102
RTVSPost2010Prop37
 90
       50
102
RTVSPost2010PropOp37
 70
     1
102
RTVSPost2010Prop38
140
0.0
102
RTVSPost2010PropOp38
 70
     1
102
RTVSPost2010Prop39
140
1.0
102
RTVSPost2010PropOp39
 70
     1
102
RTVSPost2010Prop40
 90
        0
102
RTVSPost2010PropOp40
 70
     1
102
RTVSPost2010Prop41ColorIndex
 90
       18
102
RTVSPost2010Prop41ColorRGB
 90
        0
102
RTVSPost2010PropOp41
 70
     1
102
RTVSPost2010Prop42
 90
       50
102
RTVSPost2010PropOp42
 70
     1
102
RTVSPost2010Prop43
 90
        3
102
RTVSPost2010PropOp43
 70
     1
102
RTVSPost2010Prop44ColorIndex
 90
        5
102
RTVSPost2010Prop44ColorRGB
 90
      255
102
RTVSPost2010PropOp44
 70
     1
102
RTVSPost2010Prop45
280
     0
102
RTVSPost2010PropOp45
 70
     1
102
RTVSPost2010Prop46
 90
       50
102
RTVSPost2010PropOp46
 70
     1
102
RTVSPost2010Prop47
 90
       50
102
RTVSPost2010PropOp47
 70
     1
102
RTVSPost2010Prop48
 90
       50
102
RTVSPost2010PropOp48
 70
     1
102
RTVSPost2010Prop49
280
     0
102
RTVSPost2010PropOp49
 70
     1
102
RTVSPost2010Prop50
 90
       50
102
RTVSPost2010PropOp50
 70
     1
102
RTVSPost2010Prop51ColorIndex
 90
      256
102
RTVSPost2010Prop51ColorRGB
 90
-16777216
102
RTVSPost2010PropOp51
 70
     0
102
RTVSPost2010Prop52
140
1.0
102
RTVSPost2010PropOp52
 70
     0
102
RTVSPost2010Prop53
 90
        2
102
RTVSPost2010PropOp53
 70
     1
102
RTVSPost2010Prop54
  1
strokes_ogs.tif
102
RTVSPost2010PropOp54
 70
     1
102
RTVSPost2010Prop55
280
     0
102
RTVSPost2010PropOp55
 70
     1
102
RTVSPost2010Prop56
140
1.0
102
RTVSPost2010PropOp56
 70
     1
102
RTVSPost2010Prop57
140
1.0
102
RTVSPost2010PropOp57
 70
     1
  0
XRECORD
  5
252
102
{ACAD_REACTORS
330
251
102
}
330
251
100
AcDbXrecord
280
     1
102
RTVSPropertyOp0
 70
     1
102
RTVSPropertyOp1
 70
     1
102
RTVSPropertyOp2
 70
     1
102
RTVSPropertyOp3
 70
     1
102
RTVSPropertyOp4
 70
     1
102
RTVSPropertyOp5
 70
     1
102
RTVSPropertyOp6
 70
     1
102
RTVSPropertyOp7
 70
     1
102
RTVSPropertyOp8
 70
     1
102
RTVSPropertyOp9
 70
     1
102
RTVSPropertyOp10
 70
     1
102
RTVSPropertyOp11
 70
     1
102
RTVSPropertyOp12
 70
     1
102
RTVSPropertyOp13
 70
     1
102
RTVSPropertyOp14
 70
     1
102
RTVSPropertyOp15
 70
     1
102
RTVSPropertyOp16
 70
     1
102
RTVSPropertyOp17
 70
     1
102
RTVSPropertyOp18
 70
     1
102
RTVSPropertyOp19
 70
     1
102
RTVSPropertyOp20
 70
     1
102
RTVSPropertyOp21
 70
     1
102
RTVSPropertyOp22
 70
     1
102
RTVSPropertyOp23
 70
     1
102
RTVSPropertyOp24
 70
     1
102
RTVSPropertyOp25
 70
     1
102
RTVSPropertyOp26
 70
     1
102
RTVSPropertyOp27
 70
     1
102
RTVSPropertyOp28
 70
     1
102
RTVSPropertyOp29
 70
     1
102
RTVSPropertyOp30
 70
     1
102
RTVSPropertyOp31
 70
     1
102
RTVSPropertyOp32
 70
     1
102
RTVSPropertyOp33
 70
     1
102
RTVSPropertyOp34
 70
     1
102
RTVSPropertyOp35
 70
     1
102
RTVSPropertyOp36
 70
     1
102
RTVSPropertyOp37
 70
     1
102
RTVSPropertyOp38
 70
     1
102
RTVSPropertyOp39
 70
     1
102
RTVSPropertyOp40
 70
     1
102
RTVSPropertyOp41
 70
     1
102
RTVSPropertyOp42
 70
     1
102
RTVSPropertyOp43
 70
     1
102
RTVSPropertyOp44
 70
     1
102
RTVSPropertyOp45
 70
     1
102
RTVSPropertyOp46
 70
     1
102
RTVSPropertyOp47
 70
     1
102
RTVSPropertyOp48
 70
     1
102
RTVSPropertyOp49
 70
     1
102
RTVSPropertyOp50
 70
     1
102
RTVSPropertyOp51
 70
     0
102
RTVSPropertyOp52
 70
     0
102
RTVSPropertyOp53
 70
     1
102
RTVSPropertyOp54
 70
     1
102
RTVSPropertyOp55
 70
     1
102
RTVSPropertyOp56
 70
     1
102
RTVSPropertyOp57
 70
     1
102
RTVSPost2010Prop28
280
     0
102
RTVSPost2010PropOp28
 70
     1
102
RTVSPost2010Prop29
280
     1
102
RTVSPost2010PropOp29
 70
     1
102
RTVSPost2010Prop30
280
     1
102
RTVSPost2010PropOp30
 70
     1
102
RTVSPost2010Prop31
280
     0
102
RTVSPost2010PropOp31
 70
     1
102
RTVSPost2010Prop32
280
     0
102
RTVSPost2010PropOp32
 70
     1
102
RTVSPost2010Prop33
280
     0
102
RTVSPost2010PropOp33
 70
     1
102
RTVSPost2010Prop34
280
     0
102
RTVSPost2010PropOp34
 70
     1
102
RTVSPost2010Prop35
280
     0
102
RTVSPost2010PropOp35
 70
     1
102
RTVSPost2010Prop36
280
     0
102
RTVSPost2010PropOp36
 70
     1
102
RTVSPost2010Prop37
 90
       50
102
RTVSPost2010PropOp37
 70
     1
102
RTVSPost2010Prop38
140
0.0
102
RTVSPost2010PropOp38
 70
     1
102
RTVSPost2010Prop39
140
1.0
102
RTVSPost2010PropOp39
 70
     1
102
RTVSPost2010Prop40
 90
        0
102
RTVSPost2010PropOp40
 70
     1
102
RTVSPost2010Prop41ColorIndex
 90
       18
102
RTVSPost2010Prop41ColorRGB
 90
        0
102
RTVSPost2010PropOp41
 70
     1
102
RTVSPost2010Prop42
 90
       50
102
RTVSPost2010PropOp42
 70
     1
102
RTVSPost2010Prop43
 90
        3
102
RTVSPost2010PropOp43
 70
     1
102
RTVSPost2010Prop44ColorIndex
 90
        5
102
RTVSPost2010Prop44ColorRGB
 90
      255
102
RTVSPost2010PropOp44
 70
     1
102
RTVSPost2010Prop45
280
     0
102
RTVSPost2010PropOp45
 70
     1
102
RTVSPost2010Prop46
 90
       50
102
RTVSPost2010PropOp46
 70
     1
102
RTVSPost2010Prop47
 90
       50
102
RTVSPost2010PropOp47
 70
     1
102
RTVSPost2010Prop48
 90
       50
102
RTVSPost2010PropOp48
 70
     1
102
RTVSPost2010Prop49
280
     0
102
RTVSPost2010PropOp49
 70
     1
102
RTVSPost2010Prop50
 90
       50
102
RTVSPost2010PropOp50
 70
     1
102
RTVSPost2010Prop51ColorIndex
 90
      256
102
RTVSPost2010Prop51ColorRGB
 90
-16777216
102
RTVSPost2010PropOp51
 70
     0
102
RTVSPost2010Prop52
140
1.0
102
RTVSPost2010PropOp52
 70
     0
102
RTVSPost2010Prop53
 90
        2
102
RTVSPost2010PropOp53
 70
     1
102
RTVSPost2010Prop54
  1
strokes_ogs.tif
102
RTVSPost2010PropOp54
 70
     1
102
RTVSPost2010Prop55
280
     0
102
RTVSPost2010PropOp55
 70
     1
102
RTVSPost2010Prop56
140
1.0
102
RTVSPost2010PropOp56
 70
     1
102
RTVSPost2010Prop57
140
1.0
102
RTVSPost2010PropOp57
 70
     1
  0
XRECORD
  5
266
102
{ACAD_REACTORS
330
265
102
}
330
265
100
AcDbXrecord
280
     1
102
RTVSPropertyOp0
 70
     0
102
RTVSPropertyOp1
 70
     0
102
RTVSPropertyOp2
 70
     0
102
RTVSPropertyOp3
 70
     0
102
RTVSPropertyOp4
 70
     0
102
RTVSPropertyOp5
 70
     0
102
RTVSPropertyOp6
 70
     0
102
RTVSPropertyOp7
 70
     0
102
RTVSPropertyOp8
 70
     0
102
RTVSPropertyOp9
 70
     0
102
RTVSPropertyOp10
 70
     0
102
RTVSPropertyOp11
 70
     0
102
RTVSPropertyOp12
 70
     0
102
RTVSPropertyOp13
 70
     0
102
RTVSPropertyOp14
 70
     2
102
RTVSPropertyOp15
 70
     0
102
RTVSPropertyOp16
 70
     0
102
RTVSPropertyOp17
 70
     0
102
RTVSPropertyOp18
 70
     0
102
RTVSPropertyOp19
 70
     0
102
RTVSPropertyOp20
 70
     0
102
RTVSPropertyOp21
 70
     0
102
RTVSPropertyOp22
 70
     0
102
RTVSPropertyOp23
 70
     0
102
RTVSPropertyOp24
 70
     0
102
RTVSPropertyOp25
 70
     0
102
RTVSPropertyOp26
 70
     0
102
RTVSPropertyOp27
 70
     0
102
RTVSPropertyOp28
 70
     0
102
RTVSPropertyOp29
 70
     0
102
RTVSPropertyOp30
 70
     0
102
RTVSPropertyOp31
 70
     0
102
RTVSPropertyOp32
 70
     0
102
RTVSPropertyOp33
 70
     0
102
RTVSPropertyOp34
 70
     0
102
RTVSPropertyOp35
 70
     0
102
RTVSPropertyOp36
 70
     0
102
RTVSPropertyOp37
 70
     0
102
RTVSPropertyOp38
 70
     0
102
RTVSPropertyOp39
 70
     0
102
RTVSPropertyOp40
 70
     0
102
RTVSPropertyOp41
 70
     0
102
RTVSPropertyOp42
 70
     0
102
RTVSPropertyOp43
 70
     0
102
RTVSPropertyOp44
 70
     0
102
RTVSPropertyOp45
 70
     0
102
RTVSPropertyOp46
 70
     0
102
RTVSPropertyOp47
 70
     0
102
RTVSPropertyOp48
 70
     0
102
RTVSPropertyOp49
 70
     0
102
RTVSPropertyOp50
 70
     0
102
RTVSPropertyOp51
 70
     0
102
RTVSPropertyOp52
 70
     0
102
RTVSPropertyOp53
 70
     0
102
RTVSPropertyOp54
 70
     0
102
RTVSPropertyOp55
 70
     0
102
RTVSPropertyOp56
 70
     0
102
RTVSPropertyOp57
 70
     0
102
RTVSPost2010Prop28
280
     0
102
RTVSPost2010PropOp28
 70
     0
102
RTVSPost2010Prop29
280
     1
102
RTVSPost2010PropOp29
 70
     0
102
RTVSPost2010Prop30
280
     1
102
RTVSPost2010PropOp30
 70
     0
102
RTVSPost2010Prop31
280
     0
102
RTVSPost2010PropOp31
 70
     0
102
RTVSPost2010Prop32
280
     0
102
RTVSPost2010PropOp32
 70
     0
102
RTVSPost2010Prop33
280
     0
102
RTVSPost2010PropOp33
 70
     0
102
RTVSPost2010Prop34
280
     0
102
RTVSPost2010PropOp34
 70
     0
102
RTVSPost2010Prop35
280
     0
102
RTVSPost2010PropOp35
 70
     0
102
RTVSPost2010Prop36
280
     0
102
RTVSPost2010PropOp36
 70
     0
102
RTVSPost2010Prop37
 90
       50
102
RTVSPost2010PropOp37
 70
     0
102
RTVSPost2010Prop38
140
0.0
102
RTVSPost2010PropOp38
 70
     0
102
RTVSPost2010Prop39
140
1.0
102
RTVSPost2010PropOp39
 70
     0
102
RTVSPost2010Prop40
 90
        0
102
RTVSPost2010PropOp40
 70
     0
102
RTVSPost2010Prop41ColorIndex
 90
       18
102
RTVSPost2010Prop41ColorRGB
 90
        0
102
RTVSPost2010PropOp41
 70
     0
102
RTVSPost2010Prop42
 90
       50
102
RTVSPost2010PropOp42
 70
     0
102
RTVSPost2010Prop43
 90
        3
102
RTVSPost2010PropOp43
 70
     0
102
RTVSPost2010Prop44ColorIndex
 90
        5
102
RTVSPost2010Prop44ColorRGB
 90
      255
102
RTVSPost2010PropOp44
 70
     0
102
RTVSPost2010Prop45
280
     0
102
RTVSPost2010PropOp45
 70
     0
102
RTVSPost2010Prop46
 90
       50
102
RTVSPost2010PropOp46
 70
     0
102
RTVSPost2010Prop47
 90
       50
102
RTVSPost2010PropOp47
 70
     0
102
RTVSPost2010Prop48
 90
       50
102
RTVSPost2010PropOp48
 70
     0
102
RTVSPost2010Prop49
280
     0
102
RTVSPost2010PropOp49
 70
     0
102
RTVSPost2010Prop50
 90
       50
102
RTVSPost2010PropOp50
 70
     0
102
RTVSPost2010Prop51ColorIndex
 90
      256
102
RTVSPost2010Prop51ColorRGB
 90
-16777216
102
RTVSPost2010PropOp51
 70
     0
102
RTVSPost2010Prop52
140
1.0
102
RTVSPost2010PropOp52
 70
     0
102
RTVSPost2010Prop53
 90
        2
102
RTVSPost2010PropOp53
 70
     0
102
RTVSPost2010Prop54
  1
strokes_ogs.tif
102
RTVSPost2010PropOp54
 70
     0
102
RTVSPost2010Prop55
280
     0
102
RTVSPost2010PropOp55
 70
     0
102
RTVSPost2010Prop56
140
1.0
102
RTVSPost2010PropOp56
 70
     0
102
RTVSPost2010Prop57
140
1.0
102
RTVSPost2010PropOp57
 70
     0
  0
XRECORD
  5
260
102
{ACAD_REACTORS
330
25F
102
}
330
25F
100
AcDbXrecord
280
     1
102
RTVSPropertyOp0
 70
     1
102
RTVSPropertyOp1
 70
     1
102
RTVSPropertyOp2
 70
     1
102
RTVSPropertyOp3
 70
     1
102
RTVSPropertyOp4
 70
     1
102
RTVSPropertyOp5
 70
     1
102
RTVSPropertyOp6
 70
     1
102
RTVSPropertyOp7
 70
     1
102
RTVSPropertyOp8
 70
     1
102
RTVSPropertyOp9
 70
     1
102
RTVSPropertyOp10
 70
     1
102
RTVSPropertyOp11
 70
     1
102
RTVSPropertyOp12
 70
     1
102
RTVSPropertyOp13
 70
     1
102
RTVSPropertyOp14
 70
     1
102
RTVSPropertyOp15
 70
     1
102
RTVSPropertyOp16
 70
     1
102
RTVSPropertyOp17
 70
     1
102
RTVSPropertyOp18
 70
     1
102
RTVSPropertyOp19
 70
     1
102
RTVSPropertyOp20
 70
     1
102
RTVSPropertyOp21
 70
     1
102
RTVSPropertyOp22
 70
     1
102
RTVSPropertyOp23
 70
     1
102
RTVSPropertyOp24
 70
     1
102
RTVSPropertyOp25
 70
     1
102
RTVSPropertyOp26
 70
     1
102
RTVSPropertyOp27
 70
     1
102
RTVSPropertyOp28
 70
     1
102
RTVSPropertyOp29
 70
     1
102
RTVSPropertyOp30
 70
     1
102
RTVSPropertyOp31
 70
     1
102
RTVSPropertyOp32
 70
     1
102
RTVSPropertyOp33
 70
     1
102
RTVSPropertyOp34
 70
     1
102
RTVSPropertyOp35
 70
     1
102
RTVSPropertyOp36
 70
     1
102
RTVSPropertyOp37
 70
     1
102
RTVSPropertyOp38
 70
     1
102
RTVSPropertyOp39
 70
     1
102
RTVSPropertyOp40
 70
     1
102
RTVSPropertyOp41
 70
     1
102
RTVSPropertyOp42
 70
     1
102
RTVSPropertyOp43
 70
     1
102
RTVSPropertyOp44
 70
     1
102
RTVSPropertyOp45
 70
     1
102
RTVSPropertyOp46
 70
     1
102
RTVSPropertyOp47
 70
     1
102
RTVSPropertyOp48
 70
     1
102
RTVSPropertyOp49
 70
     1
102
RTVSPropertyOp50
 70
     1
102
RTVSPropertyOp51
 70
     0
102
RTVSPropertyOp52
 70
     0
102
RTVSPropertyOp53
 70
     1
102
RTVSPropertyOp54
 70
     1
102
RTVSPropertyOp55
 70
     1
102
RTVSPropertyOp56
 70
     1
102
RTVSPropertyOp57
 70
     1
102
RTVSPost2010Prop28
280
     0
102
RTVSPost2010PropOp28
 70
     1
102
RTVSPost2010Prop29
280
     1
102
RTVSPost2010PropOp29
 70
     1
102
RTVSPost2010Prop30
280
     1
102
RTVSPost2010PropOp30
 70
     1
102
RTVSPost2010Prop31
280
     0
102
RTVSPost2010PropOp31
 70
     1
102
RTVSPost2010Prop32
280
     0
102
RTVSPost2010PropOp32
 70
     1
102
RTVSPost2010Prop33
280
     0
102
RTVSPost2010PropOp33
 70
     1
102
RTVSPost2010Prop34
280
     0
102
RTVSPost2010PropOp34
 70
     1
102
RTVSPost2010Prop35
280
     0
102
RTVSPost2010PropOp35
 70
     1
102
RTVSPost2010Prop36
280
     0
102
RTVSPost2010PropOp36
 70
     1
102
RTVSPost2010Prop37
 90
       50
102
RTVSPost2010PropOp37
 70
     1
102
RTVSPost2010Prop38
140
0.0
102
RTVSPost2010PropOp38
 70
     1
102
RTVSPost2010Prop39
140
1.0
102
RTVSPost2010PropOp39
 70
     1
102
RTVSPost2010Prop40
 90
        0
102
RTVSPost2010PropOp40
 70
     1
102
RTVSPost2010Prop41ColorIndex
 90
       18
102
RTVSPost2010Prop41ColorRGB
 90
        0
102
RTVSPost2010PropOp41
 70
     1
102
RTVSPost2010Prop42
 90
       50
102
RTVSPost2010PropOp42
 70
     1
102
RTVSPost2010Prop43
 90
        3
102
RTVSPost2010PropOp43
 70
     1
102
RTVSPost2010Prop44ColorIndex
 90
        5
102
RTVSPost2010Prop44ColorRGB
 90
      255
102
RTVSPost2010PropOp44
 70
     1
102
RTVSPost2010Prop45
280
     0
102
RTVSPost2010PropOp45
 70
     1
102
RTVSPost2010Prop46
 90
       50
102
RTVSPost2010PropOp46
 70
     1
102
RTVSPost2010Prop47
 90
       50
102
RTVSPost2010PropOp47
 70
     1
102
RTVSPost2010Prop48
 90
       50
102
RTVSPost2010PropOp48
 70
     1
102
RTVSPost2010Prop49
280
     0
102
RTVSPost2010PropOp49
 70
     1
102
RTVSPost2010Prop50
 90
       50
102
RTVSPost2010PropOp50
 70
     1
102
RTVSPost2010Prop51ColorIndex
 90
      256
102
RTVSPost2010Prop51ColorRGB
 90
-16777216
102
RTVSPost2010PropOp51
 70
     0
102
RTVSPost2010Prop52
140
1.0
102
RTVSPost2010PropOp52
 70
     0
102
RTVSPost2010Prop53
 90
        2
102
RTVSPost2010PropOp53
 70
     1
102
RTVSPost2010Prop54
  1
strokes_ogs.tif
102
RTVSPost2010PropOp54
 70
     1
102
RTVSPost2010Prop55
280
     0
102
RTVSPost2010PropOp55
 70
     1
102
RTVSPost2010Prop56
140
1.0
102
RTVSPost2010PropOp56
 70
     1
102
RTVSPost2010Prop57
140
1.0
102
RTVSPost2010PropOp57
 70
     1
  0
XRECORD
  5
268
102
{ACAD_REACTORS
330
267
102
}
330
267
100
AcDbXrecord
280
     1
102
RTVSPropertyOp0
 70
     0
102
RTVSPropertyOp1
 70
     0
102
RTVSPropertyOp2
 70
     0
102
RTVSPropertyOp3
 70
     0
102
RTVSPropertyOp4
 70
     0
102
RTVSPropertyOp5
 70
     0
102
RTVSPropertyOp6
 70
     0
102
RTVSPropertyOp7
 70
     0
102
RTVSPropertyOp8
 70
     0
102
RTVSPropertyOp9
 70
     0
102
RTVSPropertyOp10
 70
     0
102
RTVSPropertyOp11
 70
     0
102
RTVSPropertyOp12
 70
     0
102
RTVSPropertyOp13
 70
     0
102
RTVSPropertyOp14
 70
     2
102
RTVSPropertyOp15
 70
     0
102
RTVSPropertyOp16
 70
     0
102
RTVSPropertyOp17
 70
     0
102
RTVSPropertyOp18
 70
     0
102
RTVSPropertyOp19
 70
     0
102
RTVSPropertyOp20
 70
     0
102
RTVSPropertyOp21
 70
     0
102
RTVSPropertyOp22
 70
     0
102
RTVSPropertyOp23
 70
     0
102
RTVSPropertyOp24
 70
     0
102
RTVSPropertyOp25
 70
     0
102
RTVSPropertyOp26
 70
     0
102
RTVSPropertyOp27
 70
     0
102
RTVSPropertyOp28
 70
     0
102
RTVSPropertyOp29
 70
     0
102
RTVSPropertyOp30
 70
     0
102
RTVSPropertyOp31
 70
     0
102
RTVSPropertyOp32
 70
     0
102
RTVSPropertyOp33
 70
     0
102
RTVSPropertyOp34
 70
     0
102
RTVSPropertyOp35
 70
     0
102
RTVSPropertyOp36
 70
     0
102
RTVSPropertyOp37
 70
     0
102
RTVSPropertyOp38
 70
     0
102
RTVSPropertyOp39
 70
     0
102
RTVSPropertyOp40
 70
     0
102
RTVSPropertyOp41
 70
     0
102
RTVSPropertyOp42
 70
     0
102
RTVSPropertyOp43
 70
     0
102
RTVSPropertyOp44
 70
     0
102
RTVSPropertyOp45
 70
     0
102
RTVSPropertyOp46
 70
     0
102
RTVSPropertyOp47
 70
     0
102
RTVSPropertyOp48
 70
     0
102
RTVSPropertyOp49
 70
     0
102
RTVSPropertyOp50
 70
     0
102
RTVSPropertyOp51
 70
     0
102
RTVSPropertyOp52
 70
     0
102
RTVSPropertyOp53
 70
     0
102
RTVSPropertyOp54
 70
     0
102
RTVSPropertyOp55
 70
     0
102
RTVSPropertyOp56
 70
     0
102
RTVSPropertyOp57
 70
     0
102
RTVSPost2010Prop28
280
     0
102
RTVSPost2010PropOp28
 70
     0
102
RTVSPost2010Prop29
280
     1
102
RTVSPost2010PropOp29
 70
     0
102
RTVSPost2010Prop30
280
     1
102
RTVSPost2010PropOp30
 70
     0
102
RTVSPost2010Prop31
280
     0
102
RTVSPost2010PropOp31
 70
     0
102
RTVSPost2010Prop32
280
     0
102
RTVSPost2010PropOp32
 70
     0
102
RTVSPost2010Prop33
280
     0
102
RTVSPost2010PropOp33
 70
     0
102
RTVSPost2010Prop34
280
     0
102
RTVSPost2010PropOp34
 70
     0
102
RTVSPost2010Prop35
280
     0
102
RTVSPost2010PropOp35
 70
     0
102
RTVSPost2010Prop36
280
     0
102
RTVSPost2010PropOp36
 70
     0
102
RTVSPost2010Prop37
 90
       50
102
RTVSPost2010PropOp37
 70
     0
102
RTVSPost2010Prop38
140
0.0
102
RTVSPost2010PropOp38
 70
     0
102
RTVSPost2010Prop39
140
1.0
102
RTVSPost2010PropOp39
 70
     0
102
RTVSPost2010Prop40
 90
        0
102
RTVSPost2010PropOp40
 70
     0
102
RTVSPost2010Prop41ColorIndex
 90
       18
102
RTVSPost2010Prop41ColorRGB
 90
        0
102
RTVSPost2010PropOp41
 70
     0
102
RTVSPost2010Prop42
 90
       50
102
RTVSPost2010PropOp42
 70
     0
102
RTVSPost2010Prop43
 90
        3
102
RTVSPost2010PropOp43
 70
     0
102
RTVSPost2010Prop44ColorIndex
 90
        5
102
RTVSPost2010Prop44ColorRGB
 90
      255
102
RTVSPost2010PropOp44
 70
     0
102
RTVSPost2010Prop45
280
     0
102
RTVSPost2010PropOp45
 70
     0
102
RTVSPost2010Prop46
 90
       50
102
RTVSPost2010PropOp46
 70
     0
102
RTVSPost2010Prop47
 90
       50
102
RTVSPost2010PropOp47
 70
     0
102
RTVSPost2010Prop48
 90
       50
102
RTVSPost2010PropOp48
 70
     0
102
RTVSPost2010Prop49
280
     0
102
RTVSPost2010PropOp49
 70
     0
102
RTVSPost2010Prop50
 90
       50
102
RTVSPost2010PropOp50
 70
     0
102
RTVSPost2010Prop51ColorIndex
 90
      256
102
RTVSPost2010Prop51ColorRGB
 90
-16777216
102
RTVSPost2010PropOp51
 70
     0
102
RTVSPost2010Prop52
140
1.0
102
RTVSPost2010PropOp52
 70
     0
102
RTVSPost2010Prop53
 90
        2
102
RTVSPost2010PropOp53
 70
     0
102
RTVSPost2010Prop54
  1
strokes_ogs.tif
102
RTVSPost2010PropOp54
 70
     0
102
RTVSPost2010Prop55
280
     0
102
RTVSPost2010PropOp55
 70
     0
102
RTVSPost2010Prop56
140
1.0
102
RTVSPost2010PropOp56
 70
     0
102
RTVSPost2010Prop57
140
1.0
102
RTVSPost2010PropOp57
 70
     0
  0
XRECORD
  5
256
102
{ACAD_REACTORS
330
255
102
}
330
255
100
AcDbXrecord
280
     1
102
RTVSPropertyOp0
 70
     1
102
RTVSPropertyOp1
 70
     1
102
RTVSPropertyOp2
 70
     1
102
RTVSPropertyOp3
 70
     1
102
RTVSPropertyOp4
 70
     1
102
RTVSPropertyOp5
 70
     1
102
RTVSPropertyOp6
 70
     1
102
RTVSPropertyOp7
 70
     1
102
RTVSPropertyOp8
 70
     1
102
RTVSPropertyOp9
 70
     1
102
RTVSPropertyOp10
 70
     1
102
RTVSPropertyOp11
 70
     1
102
RTVSPropertyOp12
 70
     1
102
RTVSPropertyOp13
 70
     1
102
RTVSPropertyOp14
 70
     1
102
RTVSPropertyOp15
 70
     1
102
RTVSPropertyOp16
 70
     1
102
RTVSPropertyOp17
 70
     1
102
RTVSPropertyOp18
 70
     1
102
RTVSPropertyOp19
 70
     1
102
RTVSPropertyOp20
 70
     1
102
RTVSPropertyOp21
 70
     1
102
RTVSPropertyOp22
 70
     1
102
RTVSPropertyOp23
 70
     1
102
RTVSPropertyOp24
 70
     1
102
RTVSPropertyOp25
 70
     1
102
RTVSPropertyOp26
 70
     1
102
RTVSPropertyOp27
 70
     1
102
RTVSPropertyOp28
 70
     1
102
RTVSPropertyOp29
 70
     1
102
RTVSPropertyOp30
 70
     1
102
RTVSPropertyOp31
 70
     1
102
RTVSPropertyOp32
 70
     1
102
RTVSPropertyOp33
 70
     1
102
RTVSPropertyOp34
 70
     1
102
RTVSPropertyOp35
 70
     1
102
RTVSPropertyOp36
 70
     1
102
RTVSPropertyOp37
 70
     1
102
RTVSPropertyOp38
 70
     1
102
RTVSPropertyOp39
 70
     1
102
RTVSPropertyOp40
 70
     1
102
RTVSPropertyOp41
 70
     1
102
RTVSPropertyOp42
 70
     1
102
RTVSPropertyOp43
 70
     1
102
RTVSPropertyOp44
 70
     1
102
RTVSPropertyOp45
 70
     1
102
RTVSPropertyOp46
 70
     1
102
RTVSPropertyOp47
 70
     1
102
RTVSPropertyOp48
 70
     1
102
RTVSPropertyOp49
 70
     1
102
RTVSPropertyOp50
 70
     1
102
RTVSPropertyOp51
 70
     0
102
RTVSPropertyOp52
 70
     0
102
RTVSPropertyOp53
 70
     1
102
RTVSPropertyOp54
 70
     1
102
RTVSPropertyOp55
 70
     1
102
RTVSPropertyOp56
 70
     1
102
RTVSPropertyOp57
 70
     1
102
RTVSPost2010Prop28
280
     0
102
RTVSPost2010PropOp28
 70
     1
102
RTVSPost2010Prop29
280
     1
102
RTVSPost2010PropOp29
 70
     1
102
RTVSPost2010Prop30
280
     1
102
RTVSPost2010PropOp30
 70
     1
102
RTVSPost2010Prop31
280
     0
102
RTVSPost2010PropOp31
 70
     1
102
RTVSPost2010Prop32
280
     0
102
RTVSPost2010PropOp32
 70
     1
102
RTVSPost2010Prop33
280
     0
102
RTVSPost2010PropOp33
 70
     1
102
RTVSPost2010Prop34
280
     0
102
RTVSPost2010PropOp34
 70
     1
102
RTVSPost2010Prop35
280
     0
102
RTVSPost2010PropOp35
 70
     1
102
RTVSPost2010Prop36
280
     0
102
RTVSPost2010PropOp36
 70
     1
102
RTVSPost2010Prop37
 90
       50
102
RTVSPost2010PropOp37
 70
     1
102
RTVSPost2010Prop38
140
0.0
102
RTVSPost2010PropOp38
 70
     1
102
RTVSPost2010Prop39
140
1.0
102
RTVSPost2010PropOp39
 70
     1
102
RTVSPost2010Prop40
 90
        0
102
RTVSPost2010PropOp40
 70
     1
102
RTVSPost2010Prop41ColorIndex
 90
       18
102
RTVSPost2010Prop41ColorRGB
 90
        0
102
RTVSPost2010PropOp41
 70
     1
102
RTVSPost2010Prop42
 90
       50
102
RTVSPost2010PropOp42
 70
     1
102
RTVSPost2010Prop43
 90
        3
102
RTVSPost2010PropOp43
 70
     1
102
RTVSPost2010Prop44ColorIndex
 90
        5
102
RTVSPost2010Prop44ColorRGB
 90
      255
102
RTVSPost2010PropOp44
 70
     1
102
RTVSPost2010Prop45
280
     0
102
RTVSPost2010PropOp45
 70
     1
102
RTVSPost2010Prop46
 90
       50
102
RTVSPost2010PropOp46
 70
     1
102
RTVSPost2010Prop47
 90
       50
102
RTVSPost2010PropOp47
 70
     1
102
RTVSPost2010Prop48
 90
       50
102
RTVSPost2010PropOp48
 70
     1
102
RTVSPost2010Prop49
280
     0
102
RTVSPost2010PropOp49
 70
     1
102
RTVSPost2010Prop50
 90
       50
102
RTVSPost2010PropOp50
 70
     1
102
RTVSPost2010Prop51ColorIndex
 90
      256
102
RTVSPost2010Prop51ColorRGB
 90
-16777216
102
RTVSPost2010PropOp51
 70
     0
102
RTVSPost2010Prop52
140
1.0
102
RTVSPost2010PropOp52
 70
     0
102
RTVSPost2010Prop53
 90
        2
102
RTVSPost2010PropOp53
 70
     1
102
RTVSPost2010Prop54
  1
strokes_ogs.tif
102
RTVSPost2010PropOp54
 70
     1
102
RTVSPost2010Prop55
280
     0
102
RTVSPost2010PropOp55
 70
     1
102
RTVSPost2010Prop56
140
1.0
102
RTVSPost2010PropOp56
 70
     1
102
RTVSPost2010Prop57
140
1.0
102
RTVSPost2010PropOp57
 70
     1
  0
XRECORD
  5
274
102
{ACAD_REACTORS
330
273
102
}
330
273
100
AcDbXrecord
280
     1
102
RTVSPropertyOp0
 70
     1
102
RTVSPropertyOp1
 70
     1
102
RTVSPropertyOp2
 70
     1
102
RTVSPropertyOp3
 70
     1
102
RTVSPropertyOp4
 70
     1
102
RTVSPropertyOp5
 70
     1
102
RTVSPropertyOp6
 70
     1
102
RTVSPropertyOp7
 70
     1
102
RTVSPropertyOp8
 70
     1
102
RTVSPropertyOp9
 70
     1
102
RTVSPropertyOp10
 70
     1
102
RTVSPropertyOp11
 70
     1
102
RTVSPropertyOp12
 70
     1
102
RTVSPropertyOp13
 70
     1
102
RTVSPropertyOp14
 70
     1
102
RTVSPropertyOp15
 70
     1
102
RTVSPropertyOp16
 70
     1
102
RTVSPropertyOp17
 70
     1
102
RTVSPropertyOp18
 70
     1
102
RTVSPropertyOp19
 70
     1
102
RTVSPropertyOp20
 70
     1
102
RTVSPropertyOp21
 70
     1
102
RTVSPropertyOp22
 70
     1
102
RTVSPropertyOp23
 70
     1
102
RTVSPropertyOp24
 70
     1
102
RTVSPropertyOp25
 70
     1
102
RTVSPropertyOp26
 70
     1
102
RTVSPropertyOp27
 70
     1
102
RTVSPropertyOp28
 70
     1
102
RTVSPropertyOp29
 70
     1
102
RTVSPropertyOp30
 70
     1
102
RTVSPropertyOp31
 70
     1
102
RTVSPropertyOp32
 70
     1
102
RTVSPropertyOp33
 70
     1
102
RTVSPropertyOp34
 70
     1
102
RTVSPropertyOp35
 70
     1
102
RTVSPropertyOp36
 70
     1
102
RTVSPropertyOp37
 70
     1
102
RTVSPropertyOp38
 70
     1
102
RTVSPropertyOp39
 70
     1
102
RTVSPropertyOp40
 70
     1
102
RTVSPropertyOp41
 70
     1
102
RTVSPropertyOp42
 70
     1
102
RTVSPropertyOp43
 70
     1
102
RTVSPropertyOp44
 70
     1
102
RTVSPropertyOp45
 70
     1
102
RTVSPropertyOp46
 70
     1
102
RTVSPropertyOp47
 70
     1
102
RTVSPropertyOp48
 70
     1
102
RTVSPropertyOp49
 70
     1
102
RTVSPropertyOp50
 70
     1
102
RTVSPropertyOp51
 70
     0
102
RTVSPropertyOp52
 70
     0
102
RTVSPropertyOp53
 70
     1
102
RTVSPropertyOp54
 70
     1
102
RTVSPropertyOp55
 70
     1
102
RTVSPropertyOp56
 70
     1
102
RTVSPropertyOp57
 70
     1
102
RTVSPost2010Prop28
280
     0
102
RTVSPost2010PropOp28
 70
     1
102
RTVSPost2010Prop29
280
     1
102
RTVSPost2010PropOp29
 70
     1
102
RTVSPost2010Prop30
280
     1
102
RTVSPost2010PropOp30
 70
     1
102
RTVSPost2010Prop31
280
     0
102
RTVSPost2010PropOp31
 70
     1
102
RTVSPost2010Prop32
280
     0
102
RTVSPost2010PropOp32
 70
     1
102
RTVSPost2010Prop33
280
     0
102
RTVSPost2010PropOp33
 70
     1
102
RTVSPost2010Prop34
280
     0
102
RTVSPost2010PropOp34
 70
     1
102
RTVSPost2010Prop35
280
     0
102
RTVSPost2010PropOp35
 70
     1
102
RTVSPost2010Prop36
280
     0
102
RTVSPost2010PropOp36
 70
     1
102
RTVSPost2010Prop37
 90
       50
102
RTVSPost2010PropOp37
 70
     1
102
RTVSPost2010Prop38
140
0.0
102
RTVSPost2010PropOp38
 70
     1
102
RTVSPost2010Prop39
140
1.0
102
RTVSPost2010PropOp39
 70
     1
102
RTVSPost2010Prop40
 90
        0
102
RTVSPost2010PropOp40
 70
     1
102
RTVSPost2010Prop41ColorIndex
 90
       18
102
RTVSPost2010Prop41ColorRGB
 90
        0
102
RTVSPost2010PropOp41
 70
     1
102
RTVSPost2010Prop42
 90
       50
102
RTVSPost2010PropOp42
 70
     1
102
RTVSPost2010Prop43
 90
        3
102
RTVSPost2010PropOp43
 70
     1
102
RTVSPost2010Prop44ColorIndex
 90
        5
102
RTVSPost2010Prop44ColorRGB
 90
      255
102
RTVSPost2010PropOp44
 70
     1
102
RTVSPost2010Prop45
280
     0
102
RTVSPost2010PropOp45
 70
     1
102
RTVSPost2010Prop46
 90
       50
102
RTVSPost2010PropOp46
 70
     1
102
RTVSPost2010Prop47
 90
       50
102
RTVSPost2010PropOp47
 70
     1
102
RTVSPost2010Prop48
 90
       50
102
RTVSPost2010PropOp48
 70
     1
102
RTVSPost2010Prop49
280
     0
102
RTVSPost2010PropOp49
 70
     1
102
RTVSPost2010Prop50
 90
       50
102
RTVSPost2010PropOp50
 70
     1
102
RTVSPost2010Prop51ColorIndex
 90
      256
102
RTVSPost2010Prop51ColorRGB
 90
-16777216
102
RTVSPost2010PropOp51
 70
     0
102
RTVSPost2010Prop52
140
1.0
102
RTVSPost2010PropOp52
 70
     0
102
RTVSPost2010Prop53
 90
        2
102
RTVSPost2010PropOp53
 70
     1
102
RTVSPost2010Prop54
  1
strokes_ogs.tif
102
RTVSPost2010PropOp54
 70
     1
102
RTVSPost2010Prop55
280
     0
102
RTVSPost2010PropOp55
 70
     1
102
RTVSPost2010Prop56
140
1.0
102
RTVSPost2010PropOp56
 70
     1
102
RTVSPost2010Prop57
140
1.0
102
RTVSPost2010PropOp57
 70
     1
  0
XRECORD
  5
272
102
{ACAD_REACTORS
330
271
102
}
330
271
100
AcDbXrecord
280
     1
102
RTVSPropertyOp0
 70
     1
102
RTVSPropertyOp1
 70
     1
102
RTVSPropertyOp2
 70
     1
102
RTVSPropertyOp3
 70
     1
102
RTVSPropertyOp4
 70
     1
102
RTVSPropertyOp5
 70
     1
102
RTVSPropertyOp6
 70
     1
102
RTVSPropertyOp7
 70
     1
102
RTVSPropertyOp8
 70
     1
102
RTVSPropertyOp9
 70
     1
102
RTVSPropertyOp10
 70
     1
102
RTVSPropertyOp11
 70
     1
102
RTVSPropertyOp12
 70
     1
102
RTVSPropertyOp13
 70
     1
102
RTVSPropertyOp14
 70
     1
102
RTVSPropertyOp15
 70
     1
102
RTVSPropertyOp16
 70
     1
102
RTVSPropertyOp17
 70
     1
102
RTVSPropertyOp18
 70
     1
102
RTVSPropertyOp19
 70
     1
102
RTVSPropertyOp20
 70
     1
102
RTVSPropertyOp21
 70
     1
102
RTVSPropertyOp22
 70
     1
102
RTVSPropertyOp23
 70
     1
102
RTVSPropertyOp24
 70
     1
102
RTVSPropertyOp25
 70
     1
102
RTVSPropertyOp26
 70
     1
102
RTVSPropertyOp27
 70
     1
102
RTVSPropertyOp28
 70
     1
102
RTVSPropertyOp29
 70
     1
102
RTVSPropertyOp30
 70
     1
102
RTVSPropertyOp31
 70
     1
102
RTVSPropertyOp32
 70
     1
102
RTVSPropertyOp33
 70
     1
102
RTVSPropertyOp34
 70
     1
102
RTVSPropertyOp35
 70
     1
102
RTVSPropertyOp36
 70
     1
102
RTVSPropertyOp37
 70
     1
102
RTVSPropertyOp38
 70
     1
102
RTVSPropertyOp39
 70
     1
102
RTVSPropertyOp40
 70
     1
102
RTVSPropertyOp41
 70
     1
102
RTVSPropertyOp42
 70
     1
102
RTVSPropertyOp43
 70
     1
102
RTVSPropertyOp44
 70
     1
102
RTVSPropertyOp45
 70
     1
102
RTVSPropertyOp46
 70
     1
102
RTVSPropertyOp47
 70
     1
102
RTVSPropertyOp48
 70
     1
102
RTVSPropertyOp49
 70
     1
102
RTVSPropertyOp50
 70
     1
102
RTVSPropertyOp51
 70
     0
102
RTVSPropertyOp52
 70
     0
102
RTVSPropertyOp53
 70
     1
102
RTVSPropertyOp54
 70
     1
102
RTVSPropertyOp55
 70
     1
102
RTVSPropertyOp56
 70
     1
102
RTVSPropertyOp57
 70
     1
102
RTVSPost2010Prop28
280
     0
102
RTVSPost2010PropOp28
 70
     1
102
RTVSPost2010Prop29
280
     1
102
RTVSPost2010PropOp29
 70
     1
102
RTVSPost2010Prop30
280
     1
102
RTVSPost2010PropOp30
 70
     1
102
RTVSPost2010Prop31
280
     0
102
RTVSPost2010PropOp31
 70
     1
102
RTVSPost2010Prop32
280
     0
102
RTVSPost2010PropOp32
 70
     1
102
RTVSPost2010Prop33
280
     0
102
RTVSPost2010PropOp33
 70
     1
102
RTVSPost2010Prop34
280
     0
102
RTVSPost2010PropOp34
 70
     1
102
RTVSPost2010Prop35
280
     0
102
RTVSPost2010PropOp35
 70
     1
102
RTVSPost2010Prop36
280
     0
102
RTVSPost2010PropOp36
 70
     1
102
RTVSPost2010Prop37
 90
       50
102
RTVSPost2010PropOp37
 70
     1
102
RTVSPost2010Prop38
140
0.0
102
RTVSPost2010PropOp38
 70
     1
102
RTVSPost2010Prop39
140
1.0
102
RTVSPost2010PropOp39
 70
     1
102
RTVSPost2010Prop40
 90
        0
102
RTVSPost2010PropOp40
 70
     1
102
RTVSPost2010Prop41ColorIndex
 90
       18
102
RTVSPost2010Prop41ColorRGB
 90
        0
102
RTVSPost2010PropOp41
 70
     1
102
RTVSPost2010Prop42
 90
       50
102
RTVSPost2010PropOp42
 70
     1
102
RTVSPost2010Prop43
 90
        3
102
RTVSPost2010PropOp43
 70
     1
102
RTVSPost2010Prop44ColorIndex
 90
        5
102
RTVSPost2010Prop44ColorRGB
 90
      255
102
RTVSPost2010PropOp44
 70
     1
102
RTVSPost2010Prop45
280
     0
102
RTVSPost2010PropOp45
 70
     1
102
RTVSPost2010Prop46
 90
       50
102
RTVSPost2010PropOp46
 70
     1
102
RTVSPost2010Prop47
 90
       50
102
RTVSPost2010PropOp47
 70
     1
102
RTVSPost2010Prop48
 90
       50
102
RTVSPost2010PropOp48
 70
     1
102
RTVSPost2010Prop49
280
     0
102
RTVSPost2010PropOp49
 70
     1
102
RTVSPost2010Prop50
 90
       50
102
RTVSPost2010PropOp50
 70
     1
102
RTVSPost2010Prop51ColorIndex
 90
      256
102
RTVSPost2010Prop51ColorRGB
 90
-16777216
102
RTVSPost2010PropOp51
 70
     0
102
RTVSPost2010Prop52
140
1.0
102
RTVSPost2010PropOp52
 70
     0
102
RTVSPost2010Prop53
 90
        2
102
RTVSPost2010PropOp53
 70
     1
102
RTVSPost2010Prop54
  1
strokes_ogs.tif
102
RTVSPost2010PropOp54
 70
     1
102
RTVSPost2010Prop55
280
     0
102
RTVSPost2010PropOp55
 70
     1
102
RTVSPost2010Prop56
140
1.0
102
RTVSPost2010PropOp56
 70
     1
102
RTVSPost2010Prop57
140
1.0
102
RTVSPost2010PropOp57
 70
     1
  0
XRECORD
  5
26C
102
{ACAD_REACTORS
330
26B
102
}
330
26B
100
AcDbXrecord
280
     1
102
RTVSPropertyOp0
 70
     1
102
RTVSPropertyOp1
 70
     1
102
RTVSPropertyOp2
 70
     1
102
RTVSPropertyOp3
 70
     1
102
RTVSPropertyOp4
 70
     1
102
RTVSPropertyOp5
 70
     1
102
RTVSPropertyOp6
 70
     1
102
RTVSPropertyOp7
 70
     1
102
RTVSPropertyOp8
 70
     1
102
RTVSPropertyOp9
 70
     1
102
RTVSPropertyOp10
 70
     1
102
RTVSPropertyOp11
 70
     1
102
RTVSPropertyOp12
 70
     1
102
RTVSPropertyOp13
 70
     1
102
RTVSPropertyOp14
 70
     1
102
RTVSPropertyOp15
 70
     1
102
RTVSPropertyOp16
 70
     1
102
RTVSPropertyOp17
 70
     1
102
RTVSPropertyOp18
 70
     1
102
RTVSPropertyOp19
 70
     1
102
RTVSPropertyOp20
 70
     1
102
RTVSPropertyOp21
 70
     1
102
RTVSPropertyOp22
 70
     1
102
RTVSPropertyOp23
 70
     1
102
RTVSPropertyOp24
 70
     1
102
RTVSPropertyOp25
 70
     1
102
RTVSPropertyOp26
 70
     1
102
RTVSPropertyOp27
 70
     1
102
RTVSPropertyOp28
 70
     1
102
RTVSPropertyOp29
 70
     1
102
RTVSPropertyOp30
 70
     1
102
RTVSPropertyOp31
 70
     1
102
RTVSPropertyOp32
 70
     1
102
RTVSPropertyOp33
 70
     1
102
RTVSPropertyOp34
 70
     1
102
RTVSPropertyOp35
 70
     1
102
RTVSPropertyOp36
 70
     1
102
RTVSPropertyOp37
 70
     1
102
RTVSPropertyOp38
 70
     1
102
RTVSPropertyOp39
 70
     1
102
RTVSPropertyOp40
 70
     1
102
RTVSPropertyOp41
 70
     1
102
RTVSPropertyOp42
 70
     1
102
RTVSPropertyOp43
 70
     1
102
RTVSPropertyOp44
 70
     1
102
RTVSPropertyOp45
 70
     1
102
RTVSPropertyOp46
 70
     1
102
RTVSPropertyOp47
 70
     1
102
RTVSPropertyOp48
 70
     1
102
RTVSPropertyOp49
 70
     1
102
RTVSPropertyOp50
 70
     1
102
RTVSPropertyOp51
 70
     0
102
RTVSPropertyOp52
 70
     0
102
RTVSPropertyOp53
 70
     1
102
RTVSPropertyOp54
 70
     1
102
RTVSPropertyOp55
 70
     1
102
RTVSPropertyOp56
 70
     1
102
RTVSPropertyOp57
 70
     1
102
RTVSPost2010Prop28
280
     0
102
RTVSPost2010PropOp28
 70
     1
102
RTVSPost2010Prop29
280
     1
102
RTVSPost2010PropOp29
 70
     1
102
RTVSPost2010Prop30
280
     1
102
RTVSPost2010PropOp30
 70
     1
102
RTVSPost2010Prop31
280
     0
102
RTVSPost2010PropOp31
 70
     1
102
RTVSPost2010Prop32
280
     0
102
RTVSPost2010PropOp32
 70
     1
102
RTVSPost2010Prop33
280
     0
102
RTVSPost2010PropOp33
 70
     1
102
RTVSPost2010Prop34
280
     0
102
RTVSPost2010PropOp34
 70
     1
102
RTVSPost2010Prop35
280
     0
102
RTVSPost2010PropOp35
 70
     1
102
RTVSPost2010Prop36
280
     0
102
RTVSPost2010PropOp36
 70
     1
102
RTVSPost2010Prop37
 90
       50
102
RTVSPost2010PropOp37
 70
     1
102
RTVSPost2010Prop38
140
0.0
102
RTVSPost2010PropOp38
 70
     1
102
RTVSPost2010Prop39
140
1.0
102
RTVSPost2010PropOp39
 70
     1
102
RTVSPost2010Prop40
 90
        0
102
RTVSPost2010PropOp40
 70
     1
102
RTVSPost2010Prop41ColorIndex
 90
       18
102
RTVSPost2010Prop41ColorRGB
 90
        0
102
RTVSPost2010PropOp41
 70
     1
102
RTVSPost2010Prop42
 90
       50
102
RTVSPost2010PropOp42
 70
     1
102
RTVSPost2010Prop43
 90
        3
102
RTVSPost2010PropOp43
 70
     1
102
RTVSPost2010Prop44ColorIndex
 90
        5
102
RTVSPost2010Prop44ColorRGB
 90
      255
102
RTVSPost2010PropOp44
 70
     1
102
RTVSPost2010Prop45
280
     0
102
RTVSPost2010PropOp45
 70
     1
102
RTVSPost2010Prop46
 90
       50
102
RTVSPost2010PropOp46
 70
     1
102
RTVSPost2010Prop47
 90
       50
102
RTVSPost2010PropOp47
 70
     1
102
RTVSPost2010Prop48
 90
       50
102
RTVSPost2010PropOp48
 70
     1
102
RTVSPost2010Prop49
280
     0
102
RTVSPost2010PropOp49
 70
     1
102
RTVSPost2010Prop50
 90
       50
102
RTVSPost2010PropOp50
 70
     1
102
RTVSPost2010Prop51ColorIndex
 90
      256
102
RTVSPost2010Prop51ColorRGB
 90
-16777216
102
RTVSPost2010PropOp51
 70
     0
102
RTVSPost2010Prop52
140
1.0
102
RTVSPost2010PropOp52
 70
     0
102
RTVSPost2010Prop53
 90
        2
102
RTVSPost2010PropOp53
 70
     1
102
RTVSPost2010Prop54
  1
strokes_ogs.tif
102
RTVSPost2010PropOp54
 70
     1
102
RTVSPost2010Prop55
280
     0
102
RTVSPost2010PropOp55
 70
     1
102
RTVSPost2010Prop56
140
1.0
102
RTVSPost2010PropOp56
 70
     1
102
RTVSPost2010Prop57
140
1.0
102
RTVSPost2010PropOp57
 70
     1
  0
XRECORD
  5
26E
102
{ACAD_REACTORS
330
26D
102
}
330
26D
100
AcDbXrecord
280
     1
102
RTVSPropertyOp0
 70
     1
102
RTVSPropertyOp1
 70
     1
102
RTVSPropertyOp2
 70
     1
102
RTVSPropertyOp3
 70
     1
102
RTVSPropertyOp4
 70
     1
102
RTVSPropertyOp5
 70
     1
102
RTVSPropertyOp6
 70
     1
102
RTVSPropertyOp7
 70
     1
102
RTVSPropertyOp8
 70
     1
102
RTVSPropertyOp9
 70
     1
102
RTVSPropertyOp10
 70
     1
102
RTVSPropertyOp11
 70
     1
102
RTVSPropertyOp12
 70
     1
102
RTVSPropertyOp13
 70
     1
102
RTVSPropertyOp14
 70
     1
102
RTVSPropertyOp15
 70
     1
102
RTVSPropertyOp16
 70
     1
102
RTVSPropertyOp17
 70
     1
102
RTVSPropertyOp18
 70
     1
102
RTVSPropertyOp19
 70
     1
102
RTVSPropertyOp20
 70
     1
102
RTVSPropertyOp21
 70
     1
102
RTVSPropertyOp22
 70
     1
102
RTVSPropertyOp23
 70
     1
102
RTVSPropertyOp24
 70
     1
102
RTVSPropertyOp25
 70
     1
102
RTVSPropertyOp26
 70
     1
102
RTVSPropertyOp27
 70
     1
102
RTVSPropertyOp28
 70
     1
102
RTVSPropertyOp29
 70
     1
102
RTVSPropertyOp30
 70
     1
102
RTVSPropertyOp31
 70
     1
102
RTVSPropertyOp32
 70
     1
102
RTVSPropertyOp33
 70
     1
102
RTVSPropertyOp34
 70
     1
102
RTVSPropertyOp35
 70
     1
102
RTVSPropertyOp36
 70
     1
102
RTVSPropertyOp37
 70
     1
102
RTVSPropertyOp38
 70
     1
102
RTVSPropertyOp39
 70
     1
102
RTVSPropertyOp40
 70
     1
102
RTVSPropertyOp41
 70
     1
102
RTVSPropertyOp42
 70
     1
102
RTVSPropertyOp43
 70
     1
102
RTVSPropertyOp44
 70
     1
102
RTVSPropertyOp45
 70
     1
102
RTVSPropertyOp46
 70
     1
102
RTVSPropertyOp47
 70
     1
102
RTVSPropertyOp48
 70
     1
102
RTVSPropertyOp49
 70
     1
102
RTVSPropertyOp50
 70
     1
102
RTVSPropertyOp51
 70
     0
102
RTVSPropertyOp52
 70
     0
102
RTVSPropertyOp53
 70
     1
102
RTVSPropertyOp54
 70
     1
102
RTVSPropertyOp55
 70
     1
102
RTVSPropertyOp56
 70
     1
102
RTVSPropertyOp57
 70
     1
102
RTVSPost2010Prop28
280
     0
102
RTVSPost2010PropOp28
 70
     1
102
RTVSPost2010Prop29
280
     1
102
RTVSPost2010PropOp29
 70
     1
102
RTVSPost2010Prop30
280
     1
102
RTVSPost2010PropOp30
 70
     1
102
RTVSPost2010Prop31
280
     0
102
RTVSPost2010PropOp31
 70
     1
102
RTVSPost2010Prop32
280
     0
102
RTVSPost2010PropOp32
 70
     1
102
RTVSPost2010Prop33
280
     0
102
RTVSPost2010PropOp33
 70
     1
102
RTVSPost2010Prop34
280
     0
102
RTVSPost2010PropOp34
 70
     1
102
RTVSPost2010Prop35
280
     0
102
RTVSPost2010PropOp35
 70
     1
102
RTVSPost2010Prop36
280
     0
102
RTVSPost2010PropOp36
 70
     1
102
RTVSPost2010Prop37
 90
       50
102
RTVSPost2010PropOp37
 70
     1
102
RTVSPost2010Prop38
140
0.0
102
RTVSPost2010PropOp38
 70
     1
102
RTVSPost2010Prop39
140
1.0
102
RTVSPost2010PropOp39
 70
     1
102
RTVSPost2010Prop40
 90
        0
102
RTVSPost2010PropOp40
 70
     1
102
RTVSPost2010Prop41ColorIndex
 90
       18
102
RTVSPost2010Prop41ColorRGB
 90
        0
102
RTVSPost2010PropOp41
 70
     1
102
RTVSPost2010Prop42
 90
       50
102
RTVSPost2010PropOp42
 70
     1
102
RTVSPost2010Prop43
 90
        3
102
RTVSPost2010PropOp43
 70
     1
102
RTVSPost2010Prop44ColorIndex
 90
        5
102
RTVSPost2010Prop44ColorRGB
 90
      255
102
RTVSPost2010PropOp44
 70
     1
102
RTVSPost2010Prop45
280
     0
102
RTVSPost2010PropOp45
 70
     1
102
RTVSPost2010Prop46
 90
       50
102
RTVSPost2010PropOp46
 70
     1
102
RTVSPost2010Prop47
 90
       50
102
RTVSPost2010PropOp47
 70
     1
102
RTVSPost2010Prop48
 90
       50
102
RTVSPost2010PropOp48
 70
     1
102
RTVSPost2010Prop49
280
     0
102
RTVSPost2010PropOp49
 70
     1
102
RTVSPost2010Prop50
 90
       50
102
RTVSPost2010PropOp50
 70
     1
102
RTVSPost2010Prop51ColorIndex
 90
      256
102
RTVSPost2010Prop51ColorRGB
 90
-16777216
102
RTVSPost2010PropOp51
 70
     0
102
RTVSPost2010Prop52
140
1.0
102
RTVSPost2010PropOp52
 70
     0
102
RTVSPost2010Prop53
 90
        2
102
RTVSPost2010PropOp53
 70
     1
102
RTVSPost2010Prop54
  1
strokes_ogs.tif
102
RTVSPost2010PropOp54
 70
     1
102
RTVSPost2010Prop55
280
     0
102
RTVSPost2010PropOp55
 70
     1
102
RTVSPost2010Prop56
140
1.0
102
RTVSPost2010PropOp56
 70
     1
102
RTVSPost2010Prop57
140
1.0
102
RTVSPost2010PropOp57
 70
     1
  0
XRECORD
  5
25E
102
{ACAD_REACTORS
330
25D
102
}
330
25D
100
AcDbXrecord
280
     1
102
RTVSPropertyOp0
 70
     1
102
RTVSPropertyOp1
 70
     1
102
RTVSPropertyOp2
 70
     1
102
RTVSPropertyOp3
 70
     1
102
RTVSPropertyOp4
 70
     1
102
RTVSPropertyOp5
 70
     1
102
RTVSPropertyOp6
 70
     1
102
RTVSPropertyOp7
 70
     1
102
RTVSPropertyOp8
 70
     1
102
RTVSPropertyOp9
 70
     1
102
RTVSPropertyOp10
 70
     1
102
RTVSPropertyOp11
 70
     1
102
RTVSPropertyOp12
 70
     1
102
RTVSPropertyOp13
 70
     1
102
RTVSPropertyOp14
 70
     1
102
RTVSPropertyOp15
 70
     1
102
RTVSPropertyOp16
 70
     1
102
RTVSPropertyOp17
 70
     1
102
RTVSPropertyOp18
 70
     1
102
RTVSPropertyOp19
 70
     1
102
RTVSPropertyOp20
 70
     1
102
RTVSPropertyOp21
 70
     1
102
RTVSPropertyOp22
 70
     1
102
RTVSPropertyOp23
 70
     1
102
RTVSPropertyOp24
 70
     1
102
RTVSPropertyOp25
 70
     1
102
RTVSPropertyOp26
 70
     1
102
RTVSPropertyOp27
 70
     1
102
RTVSPropertyOp28
 70
     1
102
RTVSPropertyOp29
 70
     1
102
RTVSPropertyOp30
 70
     1
102
RTVSPropertyOp31
 70
     1
102
RTVSPropertyOp32
 70
     1
102
RTVSPropertyOp33
 70
     1
102
RTVSPropertyOp34
 70
     1
102
RTVSPropertyOp35
 70
     1
102
RTVSPropertyOp36
 70
     1
102
RTVSPropertyOp37
 70
     1
102
RTVSPropertyOp38
 70
     1
102
RTVSPropertyOp39
 70
     1
102
RTVSPropertyOp40
 70
     1
102
RTVSPropertyOp41
 70
     1
102
RTVSPropertyOp42
 70
     1
102
RTVSPropertyOp43
 70
     1
102
RTVSPropertyOp44
 70
     1
102
RTVSPropertyOp45
 70
     1
102
RTVSPropertyOp46
 70
     1
102
RTVSPropertyOp47
 70
     1
102
RTVSPropertyOp48
 70
     1
102
RTVSPropertyOp49
 70
     1
102
RTVSPropertyOp50
 70
     1
102
RTVSPropertyOp51
 70
     0
102
RTVSPropertyOp52
 70
     0
102
RTVSPropertyOp53
 70
     1
102
RTVSPropertyOp54
 70
     1
102
RTVSPropertyOp55
 70
     1
102
RTVSPropertyOp56
 70
     1
102
RTVSPropertyOp57
 70
     1
102
RTVSPost2010Prop28
280
     0
102
RTVSPost2010PropOp28
 70
     1
102
RTVSPost2010Prop29
280
     1
102
RTVSPost2010PropOp29
 70
     1
102
RTVSPost2010Prop30
280
     1
102
RTVSPost2010PropOp30
 70
     1
102
RTVSPost2010Prop31
280
     0
102
RTVSPost2010PropOp31
 70
     1
102
RTVSPost2010Prop32
280
     0
102
RTVSPost2010PropOp32
 70
     1
102
RTVSPost2010Prop33
280
     0
102
RTVSPost2010PropOp33
 70
     1
102
RTVSPost2010Prop34
280
     0
102
RTVSPost2010PropOp34
 70
     1
102
RTVSPost2010Prop35
280
     0
102
RTVSPost2010PropOp35
 70
     1
102
RTVSPost2010Prop36
280
     0
102
RTVSPost2010PropOp36
 70
     1
102
RTVSPost2010Prop37
 90
       50
102
RTVSPost2010PropOp37
 70
     1
102
RTVSPost2010Prop38
140
0.0
102
RTVSPost2010PropOp38
 70
     1
102
RTVSPost2010Prop39
140
1.0
102
RTVSPost2010PropOp39
 70
     1
102
RTVSPost2010Prop40
 90
        0
102
RTVSPost2010PropOp40
 70
     1
102
RTVSPost2010Prop41ColorIndex
 90
       18
102
RTVSPost2010Prop41ColorRGB
 90
        0
102
RTVSPost2010PropOp41
 70
     1
102
RTVSPost2010Prop42
 90
       50
102
RTVSPost2010PropOp42
 70
     1
102
RTVSPost2010Prop43
 90
        3
102
RTVSPost2010PropOp43
 70
     1
102
RTVSPost2010Prop44ColorIndex
 90
        5
102
RTVSPost2010Prop44ColorRGB
 90
      255
102
RTVSPost2010PropOp44
 70
     1
102
RTVSPost2010Prop45
280
     0
102
RTVSPost2010PropOp45
 70
     1
102
RTVSPost2010Prop46
 90
       50
102
RTVSPost2010PropOp46
 70
     1
102
RTVSPost2010Prop47
 90
       50
102
RTVSPost2010PropOp47
 70
     1
102
RTVSPost2010Prop48
 90
       50
102
RTVSPost2010PropOp48
 70
     1
102
RTVSPost2010Prop49
280
     0
102
RTVSPost2010PropOp49
 70
     1
102
RTVSPost2010Prop50
 90
       50
102
RTVSPost2010PropOp50
 70
     1
102
RTVSPost2010Prop51ColorIndex
 90
      256
102
RTVSPost2010Prop51ColorRGB
 90
-16777216
102
RTVSPost2010PropOp51
 70
     0
102
RTVSPost2010Prop52
140
1.0
102
RTVSPost2010PropOp52
 70
     0
102
RTVSPost2010Prop53
 90
        2
102
RTVSPost2010PropOp53
 70
     1
102
RTVSPost2010Prop54
  1
strokes_ogs.tif
102
RTVSPost2010PropOp54
 70
     1
102
RTVSPost2010Prop55
280
     0
102
RTVSPost2010PropOp55
 70
     1
102
RTVSPost2010Prop56
140
1.0
102
RTVSPost2010PropOp56
 70
     1
102
RTVSPost2010Prop57
140
1.0
102
RTVSPost2010PropOp57
 70
     1
  0
XRECORD
  5
250
102
{ACAD_REACTORS
330
24F
102
}
330
24F
100
AcDbXrecord
280
     1
102
RTVSPropertyOp0
 70
     1
102
RTVSPropertyOp1
 70
     1
102
RTVSPropertyOp2
 70
     1
102
RTVSPropertyOp3
 70
     1
102
RTVSPropertyOp4
 70
     1
102
RTVSPropertyOp5
 70
     1
102
RTVSPropertyOp6
 70
     1
102
RTVSPropertyOp7
 70
     1
102
RTVSPropertyOp8
 70
     1
102
RTVSPropertyOp9
 70
     1
102
RTVSPropertyOp10
 70
     1
102
RTVSPropertyOp11
 70
     1
102
RTVSPropertyOp12
 70
     1
102
RTVSPropertyOp13
 70
     1
102
RTVSPropertyOp14
 70
     1
102
RTVSPropertyOp15
 70
     1
102
RTVSPropertyOp16
 70
     1
102
RTVSPropertyOp17
 70
     1
102
RTVSPropertyOp18
 70
     1
102
RTVSPropertyOp19
 70
     1
102
RTVSPropertyOp20
 70
     1
102
RTVSPropertyOp21
 70
     1
102
RTVSPropertyOp22
 70
     1
102
RTVSPropertyOp23
 70
     1
102
RTVSPropertyOp24
 70
     1
102
RTVSPropertyOp25
 70
     1
102
RTVSPropertyOp26
 70
     1
102
RTVSPropertyOp27
 70
     1
102
RTVSPropertyOp28
 70
     1
102
RTVSPropertyOp29
 70
     1
102
RTVSPropertyOp30
 70
     1
102
RTVSPropertyOp31
 70
     1
102
RTVSPropertyOp32
 70
     1
102
RTVSPropertyOp33
 70
     1
102
RTVSPropertyOp34
 70
     1
102
RTVSPropertyOp35
 70
     1
102
RTVSPropertyOp36
 70
     1
102
RTVSPropertyOp37
 70
     1
102
RTVSPropertyOp38
 70
     1
102
RTVSPropertyOp39
 70
     1
102
RTVSPropertyOp40
 70
     1
102
RTVSPropertyOp41
 70
     1
102
RTVSPropertyOp42
 70
     1
102
RTVSPropertyOp43
 70
     1
102
RTVSPropertyOp44
 70
     1
102
RTVSPropertyOp45
 70
     1
102
RTVSPropertyOp46
 70
     1
102
RTVSPropertyOp47
 70
     1
102
RTVSPropertyOp48
 70
     1
102
RTVSPropertyOp49
 70
     1
102
RTVSPropertyOp50
 70
     1
102
RTVSPropertyOp51
 70
     0
102
RTVSPropertyOp52
 70
     0
102
RTVSPropertyOp53
 70
     1
102
RTVSPropertyOp54
 70
     1
102
RTVSPropertyOp55
 70
     1
102
RTVSPropertyOp56
 70
     1
102
RTVSPropertyOp57
 70
     1
102
RTVSPost2010Prop28
280
     0
102
RTVSPost2010PropOp28
 70
     1
102
RTVSPost2010Prop29
280
     1
102
RTVSPost2010PropOp29
 70
     1
102
RTVSPost2010Prop30
280
     1
102
RTVSPost2010PropOp30
 70
     1
102
RTVSPost2010Prop31
280
     0
102
RTVSPost2010PropOp31
 70
     1
102
RTVSPost2010Prop32
280
     0
102
RTVSPost2010PropOp32
 70
     1
102
RTVSPost2010Prop33
280
     0
102
RTVSPost2010PropOp33
 70
     1
102
RTVSPost2010Prop34
280
     0
102
RTVSPost2010PropOp34
 70
     1
102
RTVSPost2010Prop35
280
     0
102
RTVSPost2010PropOp35
 70
     1
102
RTVSPost2010Prop36
280
     0
102
RTVSPost2010PropOp36
 70
     1
102
RTVSPost2010Prop37
 90
       50
102
RTVSPost2010PropOp37
 70
     1
102
RTVSPost2010Prop38
140
0.0
102
RTVSPost2010PropOp38
 70
     1
102
RTVSPost2010Prop39
140
1.0
102
RTVSPost2010PropOp39
 70
     1
102
RTVSPost2010Prop40
 90
        0
102
RTVSPost2010PropOp40
 70
     1
102
RTVSPost2010Prop41ColorIndex
 90
       18
102
RTVSPost2010Prop41ColorRGB
 90
        0
102
RTVSPost2010PropOp41
 70
     1
102
RTVSPost2010Prop42
 90
       50
102
RTVSPost2010PropOp42
 70
     1
102
RTVSPost2010Prop43
 90
        3
102
RTVSPost2010PropOp43
 70
     1
102
RTVSPost2010Prop44ColorIndex
 90
        5
102
RTVSPost2010Prop44ColorRGB
 90
      255
102
RTVSPost2010PropOp44
 70
     1
102
RTVSPost2010Prop45
280
     0
102
RTVSPost2010PropOp45
 70
     1
102
RTVSPost2010Prop46
 90
       50
102
RTVSPost2010PropOp46
 70
     1
102
RTVSPost2010Prop47
 90
       50
102
RTVSPost2010PropOp47
 70
     1
102
RTVSPost2010Prop48
 90
       50
102
RTVSPost2010PropOp48
 70
     1
102
RTVSPost2010Prop49
280
     0
102
RTVSPost2010PropOp49
 70
     1
102
RTVSPost2010Prop50
 90
       50
102
RTVSPost2010PropOp50
 70
     1
102
RTVSPost2010Prop51ColorIndex
 90
      256
102
RTVSPost2010Prop51ColorRGB
 90
-16777216
102
RTVSPost2010PropOp51
 70
     0
102
RTVSPost2010Prop52
140
1.0
102
RTVSPost2010PropOp52
 70
     0
102
RTVSPost2010Prop53
 90
        2
102
RTVSPost2010PropOp53
 70
     1
102
RTVSPost2010Prop54
  1
strokes_ogs.tif
102
RTVSPost2010PropOp54
 70
     1
102
RTVSPost2010Prop55
280
     0
102
RTVSPost2010PropOp55
 70
     1
102
RTVSPost2010Prop56
140
1.0
102
RTVSPost2010PropOp56
 70
     1
102
RTVSPost2010Prop57
140
1.0
102
RTVSPost2010PropOp57
 70
     1
  0
XRECORD
  5
270
102
{ACAD_REACTORS
330
26F
102
}
330
26F
100
AcDbXrecord
280
     1
102
RTVSPropertyOp0
 70
     1
102
RTVSPropertyOp1
 70
     1
102
RTVSPropertyOp2
 70
     1
102
RTVSPropertyOp3
 70
     1
102
RTVSPropertyOp4
 70
     1
102
RTVSPropertyOp5
 70
     1
102
RTVSPropertyOp6
 70
     1
102
RTVSPropertyOp7
 70
     1
102
RTVSPropertyOp8
 70
     1
102
RTVSPropertyOp9
 70
     1
102
RTVSPropertyOp10
 70
     1
102
RTVSPropertyOp11
 70
     1
102
RTVSPropertyOp12
 70
     1
102
RTVSPropertyOp13
 70
     1
102
RTVSPropertyOp14
 70
     1
102
RTVSPropertyOp15
 70
     1
102
RTVSPropertyOp16
 70
     1
102
RTVSPropertyOp17
 70
     1
102
RTVSPropertyOp18
 70
     1
102
RTVSPropertyOp19
 70
     1
102
RTVSPropertyOp20
 70
     1
102
RTVSPropertyOp21
 70
     1
102
RTVSPropertyOp22
 70
     1
102
RTVSPropertyOp23
 70
     1
102
RTVSPropertyOp24
 70
     1
102
RTVSPropertyOp25
 70
     1
102
RTVSPropertyOp26
 70
     1
102
RTVSPropertyOp27
 70
     1
102
RTVSPropertyOp28
 70
     1
102
RTVSPropertyOp29
 70
     1
102
RTVSPropertyOp30
 70
     1
102
RTVSPropertyOp31
 70
     1
102
RTVSPropertyOp32
 70
     1
102
RTVSPropertyOp33
 70
     1
102
RTVSPropertyOp34
 70
     1
102
RTVSPropertyOp35
 70
     1
102
RTVSPropertyOp36
 70
     1
102
RTVSPropertyOp37
 70
     1
102
RTVSPropertyOp38
 70
     1
102
RTVSPropertyOp39
 70
     1
102
RTVSPropertyOp40
 70
     1
102
RTVSPropertyOp41
 70
     1
102
RTVSPropertyOp42
 70
     1
102
RTVSPropertyOp43
 70
     1
102
RTVSPropertyOp44
 70
     1
102
RTVSPropertyOp45
 70
     1
102
RTVSPropertyOp46
 70
     1
102
RTVSPropertyOp47
 70
     1
102
RTVSPropertyOp48
 70
     1
102
RTVSPropertyOp49
 70
     1
102
RTVSPropertyOp50
 70
     1
102
RTVSPropertyOp51
 70
     0
102
RTVSPropertyOp52
 70
     0
102
RTVSPropertyOp53
 70
     1
102
RTVSPropertyOp54
 70
     1
102
RTVSPropertyOp55
 70
     1
102
RTVSPropertyOp56
 70
     1
102
RTVSPropertyOp57
 70
     1
102
RTVSPost2010Prop28
280
     0
102
RTVSPost2010PropOp28
 70
     1
102
RTVSPost2010Prop29
280
     1
102
RTVSPost2010PropOp29
 70
     1
102
RTVSPost2010Prop30
280
     1
102
RTVSPost2010PropOp30
 70
     1
102
RTVSPost2010Prop31
280
     0
102
RTVSPost2010PropOp31
 70
     1
102
RTVSPost2010Prop32
280
     0
102
RTVSPost2010PropOp32
 70
     1
102
RTVSPost2010Prop33
280
     0
102
RTVSPost2010PropOp33
 70
     1
102
RTVSPost2010Prop34
280
     0
102
RTVSPost2010PropOp34
 70
     1
102
RTVSPost2010Prop35
280
     0
102
RTVSPost2010PropOp35
 70
     1
102
RTVSPost2010Prop36
280
     0
102
RTVSPost2010PropOp36
 70
     1
102
RTVSPost2010Prop37
 90
       50
102
RTVSPost2010PropOp37
 70
     1
102
RTVSPost2010Prop38
140
0.0
102
RTVSPost2010PropOp38
 70
     1
102
RTVSPost2010Prop39
140
1.0
102
RTVSPost2010PropOp39
 70
     1
102
RTVSPost2010Prop40
 90
        0
102
RTVSPost2010PropOp40
 70
     1
102
RTVSPost2010Prop41ColorIndex
 90
       18
102
RTVSPost2010Prop41ColorRGB
 90
        0
102
RTVSPost2010PropOp41
 70
     1
102
RTVSPost2010Prop42
 90
       50
102
RTVSPost2010PropOp42
 70
     1
102
RTVSPost2010Prop43
 90
        3
102
RTVSPost2010PropOp43
 70
     1
102
RTVSPost2010Prop44ColorIndex
 90
        5
102
RTVSPost2010Prop44ColorRGB
 90
      255
102
RTVSPost2010PropOp44
 70
     1
102
RTVSPost2010Prop45
280
     0
102
RTVSPost2010PropOp45
 70
     1
102
RTVSPost2010Prop46
 90
       50
102
RTVSPost2010PropOp46
 70
     1
102
RTVSPost2010Prop47
 90
       50
102
RTVSPost2010PropOp47
 70
     1
102
RTVSPost2010Prop48
 90
       50
102
RTVSPost2010PropOp48
 70
     1
102
RTVSPost2010Prop49
280
     0
102
RTVSPost2010PropOp49
 70
     1
102
RTVSPost2010Prop50
 90
       50
102
RTVSPost2010PropOp50
 70
     1
102
RTVSPost2010Prop51ColorIndex
 90
      256
102
RTVSPost2010Prop51ColorRGB
 90
-16777216
102
RTVSPost2010PropOp51
 70
     0
102
RTVSPost2010Prop52
140
1.0
102
RTVSPost2010PropOp52
 70
     0
102
RTVSPost2010Prop53
 90
        2
102
RTVSPost2010PropOp53
 70
     1
102
RTVSPost2010Prop54
  1
strokes_ogs.tif
102
RTVSPost2010PropOp54
 70
     1
102
RTVSPost2010Prop55
280
     0
102
RTVSPost2010PropOp55
 70
     1
102
RTVSPost2010Prop56
140
1.0
102
RTVSPost2010PropOp56
 70
     1
102
RTVSPost2010Prop57
140
1.0
102
RTVSPost2010PropOp57
 70
     1
  0
ENDSEC
  0
EOF
